  0
SECTION
  2
HEADER
  9
$ACADVER
  1
AC1006
  9
$AXISMODE
 70
     0
  9
$AXISUNIT
 10
0.0625
 20
0.0625
  9
$CECOLOR
 62
0
  9
$CELTYPE
  6
CONTINUOUS
  9
$CLAYER
  8
LAYER1
  9
$EXTMIN
 10
0
 20
0
  9
$EXTMAX
 10
410.3533
 20
428.2281
  9
$LIMMIN
 10
0
 20
0
  9
$LIMMAX
 10
410.3533
 20
428.2281
  9
$GRIDMODE
 70
     0
  9
$GRIDUNIT
 10
0.125
 20
0.125
  9
$MIRRTEXT
 70
     1
  9
$SNAPMODE
 70
     1
  9
$SNAPUNIT
 10
0.125
 20
0
  9
$SNAPSTYLE
 70
     0
  9
$SPLINESEGS
 70
     8
  9
$SPLINETYPE
 70
     6
  0
ENDSEC
  0
SECTION
  2
TABLES
  0TABLE  2VPORT 70     2  0VPORT  2*ACTIVE 70     0 100.0 200.0 111.0 211.0 1213.01087 224.5 130.0 230.0 141.0 241.0 150.0 250.0 160.0 260.0 361.0 170.0 270.0 370.0 409.0 412.891304 4250.0 430.0 440.0 500.0 510.0 71     0 72   100 73     1 74     1 75     0 76     0 77     0 78     0  0ENDTAB
  0
TABLE
  2
LTYPE
 70
     2
  0
LTYPE
  2
CONTINUOUS
 70
    64
  3
Descriptive Text
 72
    65
 73
     0
 40
0
  0
LTYPE
  2
DASH1
 70
    64
  3
Descriptive Text
 72
    65
 73
     2
 40
0.0694
 49
0.0417
 49
-0.0278
  0
ENDTAB
  0
TABLE
  2
LAYER
 70
     1
  0
LAYER
  2
LAYER1
 70
     0
 62
     7
  6
CONTINUOUS
  0
ENDTAB
  0TABLE  2STYLE 70     1  0STYLE  2STANDARD 70     0 400.0 411.0 500.0 71     0 420.2  3txt  4  0ENDTAB
  0
TABLE
  2
VIEW
 70
     0
  0
ENDTAB
  0
TABLE
  2
UCS
 70
     0
  0
ENDTAB
  0
TABLE
  2
DWGMGR
 70
     0
  0
ENDTAB
  0
ENDSEC
  0
SECTION
  2
BLOCKS
  0
BLOCK
  8
LAYER1
  2
Group1
 70
     0
 10
0
 20
0
 30
0
  0
LINE
  8
LAYER1
  6
CONTINUOUS
 62
     7
 10
2.5278
 20
426.8531
 30
0
 11
2.5278
 21
427.0753
 31
0
  0
LINE
  8
LAYER1
  6
CONTINUOUS
 62
     7
 10
2.5278
 20
427.1448
 30
0
 11
2.5278
 21
427.367
 31
0
  0
LINE
  8
LAYER1
  6
CONTINUOUS
 62
     7
 10
2.5972
 20
427.1448
 30
0
 11
2.5278
 21
427.1448
 31
0
  0
POLYLINE
  8
LAYER1
  6
CONTINUOUS
 62
     7
 66
     1
 70
     0
 40
0.0039
 41
0.0039
  0
VERTEX
  8
LAYER1
 10
2.5278
 20
427.0753
 30
0
 70
     0
  0
VERTEX
  8
LAYER1
 10
2.5972
 20
427.0753
 30
0
 70
     0
  0
VERTEX
  8
LAYER1
 10
2.5972
 20
427.1448
 30
0
 70
     0
  0
SEQEND
  0
LINE
  8
LAYER1
  6
CONTINUOUS
 62
     7
 10
3
 20
427.2281
 30
0
 11
3
 21
426.9781
 31
0
  0
LINE
  8
LAYER1
  6
CONTINUOUS
 62
     7
 10
3.0556
 20
427.2281
 30
0
 11
3.0556
 21
426.9781
 31
0
  0
LINE
  8
LAYER1
  6
CONTINUOUS
 62
     7
 10
3.125
 20
427.2281
 30
0
 11
3.125
 21
426.9781
 31
0
  0
LINE
  8
LAYER1
  6
CONTINUOUS
 62
     7
 10
3.1806
 20
427.2281
 30
0
 11
3.1806
 21
426.9781
 31
0
  0
LINE
  8
LAYER1
  6
CONTINUOUS
 62
     7
 10
3.25
 20
427.2281
 30
0
 11
3.25
 21
426.9781
 31
0
  0
LINE
  8
LAYER1
  6
CONTINUOUS
 62
     7
 10
3.3056
 20
427.2281
 30
0
 11
3.3056
 21
426.9781
 31
0
  0
LINE
  8
LAYER1
  6
CONTINUOUS
 62
     7
 10
3.375
 20
427.2281
 30
0
 11
3.375
 21
426.9781
 31
0
  0
LINE
  8
LAYER1
  6
CONTINUOUS
 62
     7
 10
3.4306
 20
427.2281
 30
0
 11
3.4306
 21
426.9781
 31
0
  0
LINE
  8
LAYER1
  6
CONTINUOUS
 62
     7
 10
3.5
 20
427.2281
 30
0
 11
3.5
 21
426.9781
 31
0
  0
LINE
  8
LAYER1
  6
CONTINUOUS
 62
     7
 10
3.5556
 20
427.2281
 30
0
 11
3.5556
 21
426.9781
 31
0
  0
LINE
  8
LAYER1
  6
CONTINUOUS
 62
     7
 10
3.0278
 20
427.2003
 30
0
 11
3.0278
 21
427.0198
 31
0
  0
LINE
  8
LAYER1
  6
CONTINUOUS
 62
     7
 10
3.0972
 20
427.2003
 30
0
 11
3.0972
 21
427.0198
 31
0
  0
LINE
  8
LAYER1
  6
CONTINUOUS
 62
     7
 10
3.1528
 20
427.2003
 30
0
 11
3.1528
 21
427.0198
 31
0
  0
LINE
  8
LAYER1
  6
CONTINUOUS
 62
     7
 10
3.2222
 20
427.2003
 30
0
 11
3.2222
 21
427.0198
 31
0
  0
LINE
  8
LAYER1
  6
CONTINUOUS
 62
     7
 10
3.2778
 20
427.2003
 30
0
 11
3.2778
 21
427.0198
 31
0
  0
LINE
  8
LAYER1
  6
CONTINUOUS
 62
     7
 10
3.3472
 20
427.2003
 30
0
 11
3.3472
 21
427.0198
 31
0
  0
LINE
  8
LAYER1
  6
CONTINUOUS
 62
     7
 10
3.4028
 20
427.2003
 30
0
 11
3.4028
 21
427.0198
 31
0
  0
LINE
  8
LAYER1
  6
CONTINUOUS
 62
     7
 10
3.4722
 20
427.2003
 30
0
 11
3.4722
 21
427.0198
 31
0
  0
LINE
  8
LAYER1
  6
CONTINUOUS
 62
     7
 10
3.5278
 20
427.2003
 30
0
 11
3.5278
 21
427.0198
 31
0
  0
LINE
  8
LAYER1
  6
CONTINUOUS
 62
     7
 10
3.5972
 20
427.2003
 30
0
 11
3.5972
 21
427.0198
 31
0
  0
LINE
  8
LAYER1
  6
CONTINUOUS
 62
     7
 10
3.625
 20
426.9781
 30
0
 11
3.625
 21
427.2281
 31
0
  0
LINE
  8
LAYER1
  6
CONTINUOUS
 62
     7
 10
3.6806
 20
427.2281
 30
0
 11
3.6806
 21
426.9781
 31
0
  0
LINE
  8
LAYER1
  6
CONTINUOUS
 62
     7
 10
3.75
 20
427.2281
 30
0
 11
3.75
 21
426.9781
 31
0
  0
LINE
  8
LAYER1
  6
CONTINUOUS
 62
     7
 10
3.8056
 20
427.2281
 30
0
 11
3.8056
 21
426.9781
 31
0
  0
LINE
  8
LAYER1
  6
CONTINUOUS
 62
     7
 10
3.875
 20
427.2281
 30
0
 11
3.875
 21
426.9781
 31
0
  0
LINE
  8
LAYER1
  6
CONTINUOUS
 62
     7
 10
3.9306
 20
427.2281
 30
0
 11
3.9306
 21
426.9781
 31
0
  0
LINE
  8
LAYER1
  6
CONTINUOUS
 62
     7
 10
4
 20
427.2281
 30
0
 11
4
 21
426.9781
 31
0
  0
LINE
  8
LAYER1
  6
CONTINUOUS
 62
     7
 10
3.6528
 20
427.2003
 30
0
 11
3.6528
 21
427.0198
 31
0
  0
LINE
  8
LAYER1
  6
CONTINUOUS
 62
     7
 10
3.7222
 20
427.2003
 30
0
 11
3.7222
 21
427.0198
 31
0
  0
LINE
  8
LAYER1
  6
CONTINUOUS
 62
     7
 10
3.7778
 20
427.2003
 30
0
 11
3.7778
 21
427.0198
 31
0
  0
LINE
  8
LAYER1
  6
CONTINUOUS
 62
     7
 10
3.8472
 20
427.2003
 30
0
 11
3.8472
 21
427.0198
 31
0
  0
LINE
  8
LAYER1
  6
CONTINUOUS
 62
     7
 10
3.9028
 20
427.2003
 30
0
 11
3.9028
 21
427.0198
 31
0
  0
LINE
  8
LAYER1
  6
CONTINUOUS
 62
     7
 10
3.9722
 20
427.2003
 30
0
 11
3.9722
 21
427.0198
 31
0
  0
LINE
  8
LAYER1
  6
CONTINUOUS
 62
     7
 10
4.0278
 20
427.2003
 30
0
 11
4.0278
 21
427.0198
 31
0
  0
LINE
  8
LAYER1
  6
CONTINUOUS
 62
     7
 10
4
 20
427.2281
 30
0
 11
4.0278
 21
427.2003
 31
0
  0
LINE
  8
LAYER1
  6
CONTINUOUS
 62
     7
 10
4
 20
426.9781
 30
0
 11
4.0278
 21
427.0198
 31
0
  0
LINE
  8
LAYER1
  6
CONTINUOUS
 62
     7
 10
4
 20
427.2281
 30
0
 11
2.6806
 21
427.2281
 31
0
  0
LINE
  8
LAYER1
  6
CONTINUOUS
 62
     7
 10
2.6806
 20
426.9781
 30
0
 11
4
 21
426.9781
 31
0
  0
LINE
  8
LAYER1
  6
CONTINUOUS
 62
     7
 10
2.5278
 20
427.367
 30
0
 11
2.6806
 21
427.2281
 31
0
  0
ENDBLK
  8
LAYER1
  0
BLOCK
  8
LAYER1
  2
Group2
 70
     0
 10
0
 20
0
 30
0
  0
POLYLINE
  8
LAYER1
  6
CONTINUOUS
 62
     7
 66
     1
 70
     0
 40
0.0039
 41
0.0039
  0
VERTEX
  8
LAYER1
 10
2.5278
 20
426.8531
 30
0
 70
     0
  0
VERTEX
  8
LAYER1
 10
2.6806
 20
426.9781
 30
0
 70
     0
  0
VERTEX
  8
LAYER1
 10
2.6806
 20
427.2281
 30
0
 70
     0
  0
SEQEND
  0
POLYLINE
  8
LAYER1
  6
CONTINUOUS
 62
     7
 66
     1
 70
     0
 40
0.0039
 41
0.0039
  0
VERTEX
  8
LAYER1
 10
3.4583
 20
427.4503
 30
0
 70
     0
  0
VERTEX
  8
LAYER1
 10
3.4583
 20
426.7698
 30
0
 70
     0
  0
VERTEX
  8
LAYER1
 10
3.6111
 20
426.7698
 30
0
 70
     0
  0
VERTEX
  8
LAYER1
 10
3.6111
 20
427.4503
 30
0
 70
     0
  0
VERTEX
  8
LAYER1
 10
3.4583
 20
427.4503
 30
0
 70
     0
  0
SEQEND
  0
ENDBLK
  8
LAYER1
  0
BLOCK
  8
LAYER1
  2
Group3
 70
     0
 10
0
 20
0
 30
0
  0
INSERT
  8
LAYER1
  2
Group1
 10
0
 20
0
 30
0
  0
INSERT
  8
LAYER1
  2
Group2
 10
0
 20
0
 30
0
  0
ENDBLK
  8
LAYER1
  0
BLOCK
  8
LAYER1
  2
Group4
 70
     0
 10
0
 20
0
 30
0
  0
LINE
  8
LAYER1
  6
CONTINUOUS
 62
     7
 10
3.6111
 20
427.1031
 30
0
 11
3.4583
 21
427.1031
 31
0
  0
LINE
  8
LAYER1
  6
CONTINUOUS
 62
     7
 10
0.9722
 20
427.2281
 30
0
 11
0.9722
 21
426.9781
 31
0
  0
LINE
  8
LAYER1
  6
CONTINUOUS
 62
     7
 10
1.0417
 20
427.2281
 30
0
 11
1.0417
 21
426.9781
 31
0
  0
LINE
  8
LAYER1
  6
CONTINUOUS
 62
     7
 10
1.0972
 20
427.2281
 30
0
 11
1.0972
 21
426.9781
 31
0
  0
LINE
  8
LAYER1
  6
CONTINUOUS
 62
     7
 10
1.1667
 20
427.2281
 30
0
 11
1.1667
 21
426.9781
 31
0
  0
LINE
  8
LAYER1
  6
CONTINUOUS
 62
     7
 10
1.2222
 20
427.2281
 30
0
 11
1.2222
 21
426.9781
 31
0
  0
LINE
  8
LAYER1
  6
CONTINUOUS
 62
     7
 10
1.2917
 20
427.2281
 30
0
 11
1.2917
 21
426.9781
 31
0
  0
LINE
  8
LAYER1
  6
CONTINUOUS
 62
     7
 10
1.3472
 20
427.2281
 30
0
 11
1.3472
 21
426.9781
 31
0
  0
LINE
  8
LAYER1
  6
CONTINUOUS
 62
     7
 10
1.4167
 20
427.2281
 30
0
 11
1.4167
 21
426.9781
 31
0
  0
LINE
  8
LAYER1
  6
CONTINUOUS
 62
     7
 10
1.4722
 20
427.2281
 30
0
 11
1.4722
 21
426.9781
 31
0
  0
LINE
  8
LAYER1
  6
CONTINUOUS
 62
     7
 10
1.5417
 20
427.2281
 30
0
 11
1.5417
 21
426.9781
 31
0
  0
LINE
  8
LAYER1
  6
CONTINUOUS
 62
     7
 10
1
 20
427.2003
 30
0
 11
1
 21
427.0059
 31
0
  0
LINE
  8
LAYER1
  6
CONTINUOUS
 62
     7
 10
1.0694
 20
427.2003
 30
0
 11
1.0694
 21
427.0059
 31
0
  0
LINE
  8
LAYER1
  6
CONTINUOUS
 62
     7
 10
1.125
 20
427.2003
 30
0
 11
1.125
 21
427.0059
 31
0
  0
LINE
  8
LAYER1
  6
CONTINUOUS
 62
     7
 10
1.1944
 20
427.2003
 30
0
 11
1.1944
 21
427.0059
 31
0
  0
LINE
  8
LAYER1
  6
CONTINUOUS
 62
     7
 10
1.25
 20
427.2003
 30
0
 11
1.25
 21
427.0059
 31
0
  0
LINE
  8
LAYER1
  6
CONTINUOUS
 62
     7
 10
1.3194
 20
427.2003
 30
0
 11
1.3194
 21
427.0059
 31
0
  0
LINE
  8
LAYER1
  6
CONTINUOUS
 62
     7
 10
1.375
 20
427.2003
 30
0
 11
1.375
 21
427.0059
 31
0
  0
LINE
  8
LAYER1
  6
CONTINUOUS
 62
     7
 10
1.4444
 20
427.2003
 30
0
 11
1.4444
 21
427.0059
 31
0
  0
LINE
  8
LAYER1
  6
CONTINUOUS
 62
     7
 10
1.5
 20
427.2003
 30
0
 11
1.5
 21
427.0059
 31
0
  0
LINE
  8
LAYER1
  6
CONTINUOUS
 62
     7
 10
1.5694
 20
427.2003
 30
0
 11
1.5694
 21
427.0059
 31
0
  0
LINE
  8
LAYER1
  6
CONTINUOUS
 62
     7
 10
1.5972
 20
426.9781
 30
0
 11
1.5972
 21
427.2281
 31
0
  0
POLYLINE
  8
LAYER1
  6
CONTINUOUS
 62
     7
 66
     1
 70
     0
 40
0.0039
 41
0.0039
  0
VERTEX
  8
LAYER1
 10
0.5
 20
427.1448
 30
0
 70
     0
  0
VERTEX
  8
LAYER1
 10
0.5139
 20
427.1864
 30
0
 70
     0
  0
VERTEX
  8
LAYER1
 10
0.5417
 20
427.242
 30
0
 70
     0
  0
VERTEX
  8
LAYER1
 10
0.5556
 20
427.2698
 30
0
 70
     0
  0
VERTEX
  8
LAYER1
 10
0.5694
 20
427.2975
 30
0
 70
     0
  0
VERTEX
  8
LAYER1
 10
0.5972
 20
427.3253
 30
0
 70
     0
  0
VERTEX
  8
LAYER1
 10
0.6111
 20
427.3253
 30
0
 70
     0
  0
VERTEX
  8
LAYER1
 10
0.6528
 20
427.3392
 30
0
 70
     0
  0
VERTEX
  8
LAYER1
 10
0.6667
 20
427.3392
 30
0
 70
     0
  0
SEQEND
  0
POLYLINE
  8
LAYER1
  6
CONTINUOUS
 62
     7
 66
     1
 70
     0
 40
0.0039
 41
0.0039
  0
VERTEX
  8
LAYER1
 10
0.6667
 20
426.867
 30
0
 70
     0
  0
VERTEX
  8
LAYER1
 10
0.6528
 20
426.867
 30
0
 70
     0
  0
VERTEX
  8
LAYER1
 10
0.625
 20
426.8809
 30
0
 70
     0
  0
VERTEX
  8
LAYER1
 10
0.5972
 20
426.8948
 30
0
 70
     0
  0
VERTEX
  8
LAYER1
 10
0.5694
 20
426.9225
 30
0
 70
     0
  0
VERTEX
  8
LAYER1
 10
0.5556
 20
426.9364
 30
0
 70
     0
  0
VERTEX
  8
LAYER1
 10
0.5417
 20
426.9642
 30
0
 70
     0
  0
VERTEX
  8
LAYER1
 10
0.5139
 20
427.0198
 30
0
 70
     0
  0
VERTEX
  8
LAYER1
 10
0.5
 20
427.0614
 30
0
 70
     0
  0
SEQEND
  0
LINE
  8
LAYER1
  6
CONTINUOUS
 62
     7
 10
0.6667
 20
427.3392
 30
0
 11
0.6667
 21
426.867
 31
0
  0
LINE
  8
LAYER1
  6
CONTINUOUS
 62
     7
 10
1.6667
 20
427.2281
 30
0
 11
1.6667
 21
426.9781
 31
0
  0
LINE
  8
LAYER1
  6
CONTINUOUS
 62
     7
 10
1.7222
 20
427.2281
 30
0
 11
1.7222
 21
426.9781
 31
0
  0
LINE
  8
LAYER1
  6
CONTINUOUS
 62
     7
 10
1.7917
 20
427.2281
 30
0
 11
1.7917
 21
426.9781
 31
0
  0
LINE
  8
LAYER1
  6
CONTINUOUS
 62
     7
 10
1.8472
 20
427.2281
 30
0
 11
1.8472
 21
426.9781
 31
0
  0
LINE
  8
LAYER1
  6
CONTINUOUS
 62
     7
 10
1.9167
 20
427.2281
 30
0
 11
1.9167
 21
426.9781
 31
0
  0
LINE
  8
LAYER1
  6
CONTINUOUS
 62
     7
 10
1.9722
 20
427.2281
 30
0
 11
1.9722
 21
426.9781
 31
0
  0
LINE
  8
LAYER1
  6
CONTINUOUS
 62
     7
 10
1.625
 20
427.2003
 30
0
 11
1.625
 21
427.0059
 31
0
  0
LINE
  8
LAYER1
  6
CONTINUOUS
 62
     7
 10
1.6944
 20
427.2003
 30
0
 11
1.6944
 21
427.0059
 31
0
  0
LINE
  8
LAYER1
  6
CONTINUOUS
 62
     7
 10
1.75
 20
427.2003
 30
0
 11
1.75
 21
427.0059
 31
0
  0
LINE
  8
LAYER1
  6
CONTINUOUS
 62
     7
 10
1.8194
 20
427.2003
 30
0
 11
1.8194
 21
427.0059
 31
0
  0
LINE
  8
LAYER1
  6
CONTINUOUS
 62
     7
 10
1.875
 20
427.2003
 30
0
 11
1.875
 21
427.0059
 31
0
  0
LINE
  8
LAYER1
  6
CONTINUOUS
 62
     7
 10
1.9444
 20
427.2003
 30
0
 11
1.9444
 21
427.0059
 31
0
  0
LINE
  8
LAYER1
  6
CONTINUOUS
 62
     7
 10
2
 20
427.2003
 30
0
 11
2
 21
427.0059
 31
0
  0
LINE
  8
LAYER1
  6
CONTINUOUS
 62
     7
 10
1.9722
 20
427.2281
 30
0
 11
2
 21
427.2003
 31
0
  0
LINE
  8
LAYER1
  6
CONTINUOUS
 62
     7
 10
1.9722
 20
426.9781
 30
0
 11
2
 21
427.0059
 31
0
  0
LINE
  8
LAYER1
  6
CONTINUOUS
 62
     7
 10
1.9722
 20
427.2281
 30
0
 11
0.6667
 21
427.2281
 31
0
  0
ENDBLK
  8
LAYER1
  0
BLOCK
  8
LAYER1
  2
Group5
 70
     0
 10
0
 20
0
 30
0
  0
LINE
  8
LAYER1
  6
CONTINUOUS
 62
     7
 10
0.6667
 20
426.9781
 30
0
 11
1.9722
 21
426.9781
 31
0
  0
POLYLINE
  8
LAYER1
  6
CONTINUOUS
 62
     7
 66
     1
 70
     0
 40
0.0039
 41
0.0039
  0
VERTEX
  8
LAYER1
 10
1.4444
 20
427.4503
 30
0
 70
     0
  0
VERTEX
  8
LAYER1
 10
1.4444
 20
426.7559
 30
0
 70
     0
  0
VERTEX
  8
LAYER1
 10
1.5833
 20
426.7559
 30
0
 70
     0
  0
VERTEX
  8
LAYER1
 10
1.5833
 20
427.4503
 30
0
 70
     0
  0
VERTEX
  8
LAYER1
 10
1.4444
 20
427.4503
 30
0
 70
     0
  0
SEQEND
  0
ENDBLK
  8
LAYER1
  0
BLOCK
  8
LAYER1
  2
Group6
 70
     0
 10
0
 20
0
 30
0
  0
INSERT
  8
LAYER1
  2
Group4
 10
0
 20
0
 30
0
  0
INSERT
  8
LAYER1
  2
Group5
 10
0
 20
0
 30
0
  0
ENDBLK
  8
LAYER1
  0
BLOCK
  8
LAYER1
  2
Group7
 70
     0
 10
0
 20
0
 30
0
  0
LINE
  8
LAYER1
  6
CONTINUOUS
 62
     7
 10
1.5833
 20
427.1031
 30
0
 11
1.4444
 21
427.1031
 31
0
  0
LINE
  8
LAYER1
  6
CONTINUOUS
 62
     7
 10
9.1389
 20
421.4642
 30
0
 11
9.4583
 21
421.5198
 31
0
  0
LINE
  8
LAYER1
  6
CONTINUOUS
 62
     7
 10
9.1389
 20
421.1309
 30
0
 11
9.1389
 21
421.4642
 31
0
  0
LINE
  8
LAYER1
  6
CONTINUOUS
 62
     7
 10
9.1389
 20
421.1309
 30
0
 11
9.4583
 21
421.0753
 31
0
  0
LINE
  8
LAYER1
  6
CONTINUOUS
 62
     7
 10
9.1389
 20
421.1309
 30
0
 11
9.1389
 21
421.4642
 31
0
  0
LINE
  8
LAYER1
  6
CONTINUOUS
 62
     7
 10
11.1389
 20
421.4642
 30
0
 11
10.8056
 21
421.5198
 31
0
  0
LINE
  8
LAYER1
  6
CONTINUOUS
 62
     7
 10
11.1389
 20
421.1309
 30
0
 11
10.8056
 21
421.0753
 31
0
  0
LINE
  8
LAYER1
  6
CONTINUOUS
 62
     7
 10
11.1389
 20
421.4642
 30
0
 11
11.1389
 21
421.1309
 31
0
  0
LINE
  8
LAYER1
  6
CONTINUOUS
 62
     7
 10
8.9306
 20
421.4225
 30
0
 11
8.9306
 21
421.1725
 31
0
  0
LINE
  8
LAYER1
  6
CONTINUOUS
 62
     7
 10
9
 20
421.4225
 30
0
 11
9
 21
421.1725
 31
0
  0
LINE
  8
LAYER1
  6
CONTINUOUS
 62
     7
 10
9.0556
 20
421.4225
 30
0
 11
9.0556
 21
421.1725
 31
0
  0
LINE
  8
LAYER1
  6
CONTINUOUS
 62
     7
 10
9.125
 20
421.4225
 30
0
 11
9.125
 21
421.1725
 31
0
  0
LINE
  8
LAYER1
  6
CONTINUOUS
 62
     7
 10
8.9583
 20
421.3948
 30
0
 11
8.9583
 21
421.2003
 31
0
  0
LINE
  8
LAYER1
  6
CONTINUOUS
 62
     7
 10
9.0278
 20
421.3948
 30
0
 11
9.0278
 21
421.2003
 31
0
  0
LINE
  8
LAYER1
  6
CONTINUOUS
 62
     7
 10
9.0833
 20
421.3948
 30
0
 11
9.0833
 21
421.2003
 31
0
  0
LINE
  8
LAYER1
  6
CONTINUOUS
 62
     7
 10
11.3472
 20
421.4225
 30
0
 11
11.3472
 21
421.1725
 31
0
  0
LINE
  8
LAYER1
  6
CONTINUOUS
 62
     7
 10
11.2222
 20
421.4225
 30
0
 11
11.2222
 21
421.1725
 31
0
  0
LINE
  8
LAYER1
  6
CONTINUOUS
 62
     7
 10
11.1667
 20
421.4225
 30
0
 11
11.1667
 21
421.1725
 31
0
  0
LINE
  8
LAYER1
  6
CONTINUOUS
 62
     7
 10
11.3194
 20
421.3948
 30
0
 11
11.3194
 21
421.2003
 31
0
  0
LINE
  8
LAYER1
  6
CONTINUOUS
 62
     7
 10
11.25
 20
421.3948
 30
0
 11
11.25
 21
421.2003
 31
0
  0
LINE
  8
LAYER1
  6
CONTINUOUS
 62
     7
 10
11.1944
 20
421.3948
 30
0
 11
11.1944
 21
421.2003
 31
0
  0
LINE
  8
LAYER1
  6
CONTINUOUS
 62
     7
 10
11.4167
 20
421.4225
 30
0
 11
11.1389
 21
421.4225
 31
0
  0
LINE
  8
LAYER1
  6
CONTINUOUS
 62
     7
 10
11.1389
 20
421.1725
 30
0
 11
11.4167
 21
421.1725
 31
0
  0
LINE
  8
LAYER1
  6
CONTINUOUS
 62
     7
 10
8.875
 20
421.4225
 30
0
 11
9.1389
 21
421.4225
 31
0
  0
LINE
  8
LAYER1
  6
CONTINUOUS
 62
     7
 10
9.1389
 20
421.1725
 30
0
 11
8.875
 21
421.1725
 31
0
  0
POLYLINE
  8
LAYER1
  6
CONTINUOUS
 62
     7
 66
     1
 70
     0
 40
0.0039
 41
0.0039
  0
VERTEX
  8
LAYER1
 10
10.8194
 20
421.4781
 30
0
 70
     0
  0
VERTEX
  8
LAYER1
 10
10.8161
 20
421.4619
 30
0
 70
     0
  0
VERTEX
  8
LAYER1
 10
10.8072
 20
421.4487
 30
0
 70
     0
  0
VERTEX
  8
LAYER1
 10
10.7939
 20
421.4397
 30
0
 70
     0
  0
VERTEX
  8
LAYER1
 10
10.7778
 20
421.4364
 30
0
 70
     0
  0
SEQEND
  0
LINE
  8
LAYER1
  6
CONTINUOUS
 62
     7
 10
10.8056
 20
421.5198
 30
0
 11
10.8056
 21
421.492
 31
0
  0
POLYLINE
  8
LAYER1
  6
CONTINUOUS
 62
     7
 66
     1
 70
     0
 40
0.0039
 41
0.0039
  0
VERTEX
  8
LAYER1
 10
10.7778
 20
421.1309
 30
0
 70
     0
  0
VERTEX
  8
LAYER1
 10
10.7939
 20
421.1276
 30
0
 70
     0
  0
VERTEX
  8
LAYER1
 10
10.8072
 20
421.1186
 30
0
 70
     0
  0
VERTEX
  8
LAYER1
 10
10.8161
 20
421.1054
 30
0
 70
     0
  0
VERTEX
  8
LAYER1
 10
10.8194
 20
421.0892
 30
0
 70
     0
  0
SEQEND
  0
LINE
  8
LAYER1
  6
CONTINUOUS
 62
     7
 10
10.8056
 20
421.1031
 30
0
 11
10.8056
 21
421.0753
 31
0
  0
POLYLINE
  8
LAYER1
  6
CONTINUOUS
 62
     7
 66
     1
 70
     0
 40
0.0039
 41
0.0039
  0
VERTEX
  8
LAYER1
 10
9.4583
 20
421.0892
 30
0
 70
     0
  0
VERTEX
  8
LAYER1
 10
9.4616
 20
421.1054
 30
0
 70
     0
  0
VERTEX
  8
LAYER1
 10
9.4706
 20
421.1186
 30
0
 70
     0
  0
VERTEX
  8
LAYER1
 10
9.4838
 20
421.1276
 30
0
 70
     0
  0
VERTEX
  8
LAYER1
 10
9.5
 20
421.1309
 30
0
 70
     0
  0
SEQEND
  0
LINE
  8
LAYER1
  6
CONTINUOUS
 62
     7
 10
9.4583
 20
421.1031
 30
0
 11
9.4583
 21
421.0753
 31
0
  0
LINE
  8
LAYER1
  6
CONTINUOUS
 62
     7
 10
10.7639
 20
421.1309
 30
0
 11
9.5
 21
421.1309
 31
0
  0
POLYLINE
  8
LAYER1
  6
CONTINUOUS
 62
     7
 66
     1
 70
     0
 40
0.0039
 41
0.0039
  0
VERTEX
  8
LAYER1
 10
9.5
 20
421.4364
 30
0
 70
     0
  0
VERTEX
  8
LAYER1
 10
9.4838
 20
421.4397
 30
0
 70
     0
  0
VERTEX
  8
LAYER1
 10
9.4706
 20
421.4487
 30
0
 70
     0
  0
VERTEX
  8
LAYER1
 10
9.4616
 20
421.4619
 30
0
 70
     0
  0
VERTEX
  8
LAYER1
 10
9.4583
 20
421.4781
 30
0
 70
     0
  0
SEQEND
  0
LINE
  8
LAYER1
  6
CONTINUOUS
 62
     7
 10
9.4583
 20
421.5198
 30
0
 11
9.4583
 21
421.492
 31
0
  0
ENDBLK
  8
LAYER1
  0
BLOCK
  8
LAYER1
  2
Group8
 70
     0
 10
0
 20
0
 30
0
  0
LINE
  8
LAYER1
  6
CONTINUOUS
 62
     7
 10
9.5
 20
421.4642
 30
0
 11
10.7639
 21
421.4642
 31
0
  0
POLYLINE
  8
LAYER1
  6
CONTINUOUS
 62
     7
 66
     1
 70
     0
 40
0.0039
 41
0.0039
  0
VERTEX
  8
LAYER1
 10
9.1389
 20
422.2698
 30
0
 70
     0
  0
VERTEX
  8
LAYER1
 10
9.4583
 20
422.3253
 30
0
 70
     0
  0
VERTEX
  8
LAYER1
 10
10.8056
 20
422.3253
 30
0
 70
     0
  0
SEQEND
  0
LINE
  8
LAYER1
  6
CONTINUOUS
 62
     7
 10
10.8056
 20
421.867
 30
0
 11
9.4583
 21
421.867
 31
0
  0
LINE
  8
LAYER1
  6
CONTINUOUS
 62
     7
 10
10.8056
 20
422.3253
 30
0
 11
10.8056
 21
421.867
 31
0
  0
LINE
  8
LAYER1
  6
CONTINUOUS
 62
     7
 10
9.4583
 20
422.3253
 30
0
 11
9.4583
 21
421.867
 31
0
  0
LINE
  8
LAYER1
  6
CONTINUOUS
 62
     7
 10
9.4583
 20
422.2698
 30
0
 11
10.8056
 21
422.2698
 31
0
  0
LINE
  8
LAYER1
  6
CONTINUOUS
 62
     7
 10
10.8056
 20
421.9364
 30
0
 11
9.4583
 21
421.9364
 31
0
  0
LINE
  8
LAYER1
  6
CONTINUOUS
 62
     7
 10
9.1389
 20
421.9364
 30
0
 11
9.1389
 21
422.2698
 31
0
  0
LINE
  8
LAYER1
  6
CONTINUOUS
 62
     7
 10
9.1389
 20
421.9364
 30
0
 11
9.4583
 21
421.867
 31
0
  0
LINE
  8
LAYER1
  6
CONTINUOUS
 62
     7
 10
9.1389
 20
421.9364
 30
0
 11
9.1389
 21
422.2698
 31
0
  0
LINE
  8
LAYER1
  6
CONTINUOUS
 62
     7
 10
11.1389
 20
422.2698
 30
0
 11
10.8056
 21
422.3253
 31
0
  0
LINE
  8
LAYER1
  6
CONTINUOUS
 62
     7
 10
11.1389
 20
421.9364
 30
0
 11
10.8056
 21
421.867
 31
0
  0
ENDBLK
  8
LAYER1
  0
BLOCK
  8
LAYER1
  2
Group9
 70
     0
 10
0
 20
0
 30
0
  0
LINE
  8
LAYER1
  6
CONTINUOUS
 62
     7
 10
11.1389
 20
422.2698
 30
0
 11
11.1389
 21
421.9364
 31
0
  0
LINE
  8
LAYER1
  6
CONTINUOUS
 62
     7
 10
8.9306
 20
422.2281
 30
0
 11
8.9306
 21
421.9781
 31
0
  0
LINE
  8
LAYER1
  6
CONTINUOUS
 62
     7
 10
9
 20
422.2281
 30
0
 11
9
 21
421.9781
 31
0
  0
LINE
  8
LAYER1
  6
CONTINUOUS
 62
     7
 10
9.0556
 20
422.2281
 30
0
 11
9.0556
 21
421.9781
 31
0
  0
LINE
  8
LAYER1
  6
CONTINUOUS
 62
     7
 10
9.125
 20
422.2281
 30
0
 11
9.125
 21
421.9781
 31
0
  0
LINE
  8
LAYER1
  6
CONTINUOUS
 62
     7
 10
9.5
 20
422.2281
 30
0
 11
9.5
 21
421.9781
 31
0
  0
LINE
  8
LAYER1
  6
CONTINUOUS
 62
     7
 10
9.5556
 20
422.2281
 30
0
 11
9.5556
 21
421.9781
 31
0
  0
LINE
  8
LAYER1
  6
CONTINUOUS
 62
     7
 10
9.625
 20
422.2281
 30
0
 11
9.625
 21
421.9781
 31
0
  0
LINE
  8
LAYER1
  6
CONTINUOUS
 62
     7
 10
9.6806
 20
422.2281
 30
0
 11
9.6806
 21
421.9781
 31
0
  0
LINE
  8
LAYER1
  6
CONTINUOUS
 62
     7
 10
9.75
 20
422.2281
 30
0
 11
9.75
 21
421.9781
 31
0
  0
LINE
  8
LAYER1
  6
CONTINUOUS
 62
     7
 10
8.9583
 20
422.1864
 30
0
 11
8.9583
 21
422.0059
 31
0
  0
LINE
  8
LAYER1
  6
CONTINUOUS
 62
     7
 10
9.0278
 20
422.1864
 30
0
 11
9.0278
 21
422.0059
 31
0
  0
LINE
  8
LAYER1
  6
CONTINUOUS
 62
     7
 10
9.0833
 20
422.1864
 30
0
 11
9.0833
 21
422.0059
 31
0
  0
LINE
  8
LAYER1
  6
CONTINUOUS
 62
     7
 10
9.5278
 20
422.1864
 30
0
 11
9.5278
 21
422.0059
 31
0
  0
LINE
  8
LAYER1
  6
CONTINUOUS
 62
     7
 10
9.5833
 20
422.1864
 30
0
 11
9.5833
 21
422.0059
 31
0
  0
LINE
  8
LAYER1
  6
CONTINUOUS
 62
     7
 10
9.6528
 20
422.1864
 30
0
 11
9.6528
 21
422.0059
 31
0
  0
LINE
  8
LAYER1
  6
CONTINUOUS
 62
     7
 10
9.7083
 20
422.1864
 30
0
 11
9.7083
 21
422.0059
 31
0
  0
LINE
  8
LAYER1
  6
CONTINUOUS
 62
     7
 10
9.7778
 20
422.1864
 30
0
 11
9.7778
 21
422.0059
 31
0
  0
LINE
  8
LAYER1
  6
CONTINUOUS
 62
     7
 10
11.3472
 20
422.2281
 30
0
 11
11.3472
 21
421.9781
 31
0
  0
LINE
  8
LAYER1
  6
CONTINUOUS
 62
     7
 10
11.2917
 20
422.2281
 30
0
 11
11.2917
 21
421.9781
 31
0
  0
LINE
  8
LAYER1
  6
CONTINUOUS
 62
     7
 10
11.2222
 20
422.2281
 30
0
 11
11.2222
 21
421.9781
 31
0
  0
LINE
  8
LAYER1
  6
CONTINUOUS
 62
     7
 10
11.1667
 20
422.2281
 30
0
 11
11.1667
 21
421.9781
 31
0
  0
LINE
  8
LAYER1
  6
CONTINUOUS
 62
     7
 10
10.7917
 20
422.2281
 30
0
 11
10.7917
 21
421.9781
 31
0
  0
LINE
  8
LAYER1
  6
CONTINUOUS
 62
     7
 10
10.7222
 20
422.2281
 30
0
 11
10.7222
 21
421.9781
 31
0
  0
LINE
  8
LAYER1
  6
CONTINUOUS
 62
     7
 10
10.6667
 20
422.2281
 30
0
 11
10.6667
 21
421.9781
 31
0
  0
LINE
  8
LAYER1
  6
CONTINUOUS
 62
     7
 10
10.5972
 20
422.2281
 30
0
 11
10.5972
 21
421.9781
 31
0
  0
LINE
  8
LAYER1
  6
CONTINUOUS
 62
     7
 10
10.5417
 20
422.2281
 30
0
 11
10.5417
 21
421.9781
 31
0
  0
LINE
  8
LAYER1
  6
CONTINUOUS
 62
     7
 10
11.3194
 20
422.1864
 30
0
 11
11.3194
 21
422.0059
 31
0
  0
LINE
  8
LAYER1
  6
CONTINUOUS
 62
     7
 10
11.25
 20
422.1864
 30
0
 11
11.25
 21
422.0059
 31
0
  0
LINE
  8
LAYER1
  6
CONTINUOUS
 62
     7
 10
11.1944
 20
422.1864
 30
0
 11
11.1944
 21
422.0059
 31
0
  0
LINE
  8
LAYER1
  6
CONTINUOUS
 62
     7
 10
10.75
 20
422.1864
 30
0
 11
10.75
 21
422.0059
 31
0
  0
LINE
  8
LAYER1
  6
CONTINUOUS
 62
     7
 10
10.6944
 20
422.1864
 30
0
 11
10.6944
 21
422.0059
 31
0
  0
LINE
  8
LAYER1
  6
CONTINUOUS
 62
     7
 10
10.625
 20
422.1864
 30
0
 11
10.625
 21
422.0059
 31
0
  0
LINE
  8
LAYER1
  6
CONTINUOUS
 62
     7
 10
10.5694
 20
422.1864
 30
0
 11
10.5694
 21
422.0059
 31
0
  0
LINE
  8
LAYER1
  6
CONTINUOUS
 62
     7
 10
10.5
 20
422.1864
 30
0
 11
10.5
 21
422.0059
 31
0
  0
LINE
  8
LAYER1
  6
CONTINUOUS
 62
     7
 10
10.4722
 20
422.2281
 30
0
 11
10.4722
 21
421.9781
 31
0
  0
LINE
  8
LAYER1
  6
CONTINUOUS
 62
     7
 10
11.4167
 20
422.2281
 30
0
 11
11.1389
 21
422.2281
 31
0
  0
LINE
  8
LAYER1
  6
CONTINUOUS
 62
     7
 10
10.8056
 20
422.2281
 30
0
 11
10.4722
 21
422.2281
 31
0
  0
LINE
  8
LAYER1
  6
CONTINUOUS
 62
     7
 10
10.4722
 20
421.9781
 30
0
 11
10.8056
 21
421.9781
 31
0
  0
LINE
  8
LAYER1
  6
CONTINUOUS
 62
     7
 10
11.1389
 20
421.9781
 30
0
 11
11.4167
 21
421.9781
 31
0
  0
LINE
  8
LAYER1
  6
CONTINUOUS
 62
     7
 10
9.8056
 20
422.2281
 30
0
 11
9.8056
 21
421.9781
 31
0
  0
LINE
  8
LAYER1
  6
CONTINUOUS
 62
     7
 10
8.875
 20
422.2281
 30
0
 11
9.1389
 21
422.2281
 31
0
  0
LINE
  8
LAYER1
  6
CONTINUOUS
 62
     7
 10
9.4583
 20
422.2281
 30
0
 11
9.8056
 21
422.2281
 31
0
  0
LINE
  8
LAYER1
  6
CONTINUOUS
 62
     7
 10
9.8056
 20
421.9781
 30
0
 11
9.4583
 21
421.9781
 31
0
  0
ENDBLK
  8
LAYER1
  0
BLOCK
  8
LAYER1
  2
Group10
 70
     0
 10
0
 20
0
 30
0
  0
INSERT
  8
LAYER1
  2
Group8
 10
0
 20
0
 30
0
  0
INSERT
  8
LAYER1
  2
Group9
 10
0
 20
0
 30
0
  0
ENDBLK
  8
LAYER1
  0
BLOCK
  8
LAYER1
  2
Group11
 70
     0
 10
0
 20
0
 30
0
  0
LINE
  8
LAYER1
  6
CONTINUOUS
 62
     7
 10
9.1389
 20
421.9781
 30
0
 11
8.875
 21
421.9781
 31
0
  0
LINE
  8
LAYER1
  6
CONTINUOUS
 62
     7
 10
10.5556
 20
424.1448
 30
0
 11
10.2222
 21
424.2142
 31
0
  0
LINE
  8
LAYER1
  6
CONTINUOUS
 62
     7
 10
10.5556
 20
423.8114
 30
0
 11
10.2222
 21
423.7559
 31
0
  0
LINE
  8
LAYER1
  6
CONTINUOUS
 62
     7
 10
10.5556
 20
424.1448
 30
0
 11
10.5556
 21
423.8114
 31
0
  0
LINE
  8
LAYER1
  6
CONTINUOUS
 62
     7
 10
10.7778
 20
424.1031
 30
0
 11
10.7778
 21
423.8531
 31
0
  0
LINE
  8
LAYER1
  6
CONTINUOUS
 62
     7
 10
10.7083
 20
424.1031
 30
0
 11
10.7083
 21
423.8531
 31
0
  0
LINE
  8
LAYER1
  6
CONTINUOUS
 62
     7
 10
10.6528
 20
424.1031
 30
0
 11
10.6528
 21
423.8531
 31
0
  0
LINE
  8
LAYER1
  6
CONTINUOUS
 62
     7
 10
10.5833
 20
424.1031
 30
0
 11
10.5833
 21
423.8531
 31
0
  0
LINE
  8
LAYER1
  6
CONTINUOUS
 62
     7
 10
10.75
 20
424.0753
 30
0
 11
10.75
 21
423.8948
 31
0
  0
LINE
  8
LAYER1
  6
CONTINUOUS
 62
     7
 10
10.6806
 20
424.0753
 30
0
 11
10.6806
 21
423.8948
 31
0
  0
LINE
  8
LAYER1
  6
CONTINUOUS
 62
     7
 10
10.625
 20
424.0753
 30
0
 11
10.625
 21
423.8948
 31
0
  0
LINE
  8
LAYER1
  6
CONTINUOUS
 62
     7
 10
10.8333
 20
424.1031
 30
0
 11
10.5556
 21
424.1031
 31
0
  0
LINE
  8
LAYER1
  6
CONTINUOUS
 62
     7
 10
10.5556
 20
423.8531
 30
0
 11
10.8333
 21
423.8531
 31
0
  0
POLYLINE
  8
LAYER1
  6
CONTINUOUS
 62
     7
 66
     1
 70
     0
 40
0.0039
 41
0.0039
  0
VERTEX
  8
LAYER1
 10
10.25
 20
424.1725
 30
0
 70
     0
  0
VERTEX
  8
LAYER1
 10
10.2467
 20
424.1564
 30
0
 70
     0
  0
VERTEX
  8
LAYER1
 10
10.2377
 20
424.1431
 30
0
 70
     0
  0
VERTEX
  8
LAYER1
 10
10.2245
 20
424.1342
 30
0
 70
     0
  0
VERTEX
  8
LAYER1
 10
10.2083
 20
424.1309
 30
0
 70
     0
  0
SEQEND
  0
LINE
  8
LAYER1
  6
CONTINUOUS
 62
     7
 10
10.2222
 20
424.2142
 30
0
 11
10.2222
 21
424.1864
 31
0
  0
POLYLINE
  8
LAYER1
  6
CONTINUOUS
 62
     7
 66
     1
 70
     0
 40
0.0039
 41
0.0039
  0
VERTEX
  8
LAYER1
 10
10.2083
 20
423.8114
 30
0
 70
     0
  0
VERTEX
  8
LAYER1
 10
10.2245
 20
423.8081
 30
0
 70
     0
  0
VERTEX
  8
LAYER1
 10
10.2377
 20
423.7992
 30
0
 70
     0
  0
VERTEX
  8
LAYER1
 10
10.2467
 20
423.7859
 30
0
 70
     0
  0
VERTEX
  8
LAYER1
 10
10.25
 20
423.7698
 30
0
 70
     0
  0
SEQEND
  0
LINE
  8
LAYER1
  6
CONTINUOUS
 62
     7
 10
10.2222
 20
423.7837
 30
0
 11
10.2222
 21
423.7559
 31
0
  0
POLYLINE
  8
LAYER1
  6
CONTINUOUS
 62
     7
 66
     1
 70
     1
 40
0.0039
 41
0.0039
  0
VERTEX
  8
LAYER1
 10
9.3333
 20
423.985
 30
0
 70
     0
  0
VERTEX
  8
LAYER1
 10
9.3299
 20
423.953
 30
0
 70
     0
  0
VERTEX
  8
LAYER1
 10
9.3201
 20
423.9231
 30
0
 70
     0
  0
VERTEX
  8
LAYER1
 10
9.3047
 20
423.896
 30
0
 70
     0
  0
VERTEX
  8
LAYER1
 10
9.2843
 20
423.8723
 30
0
 70
     0
  0
VERTEX
  8
LAYER1
 10
9.2596
 20
423.8528
 30
0
 70
     0
  0
VERTEX
  8
LAYER1
 10
9.2313
 20
423.838
 30
0
 70
     0
  0
VERTEX
  8
LAYER1
 10
9.2001
 20
423.8286
 30
0
 70
     0
  0
VERTEX
  8
LAYER1
 10
9.1667
 20
423.8253
 30
0
 70
     0
  0
VERTEX
  8
LAYER1
 10
9.1667
 20
423.8253
 30
0
 70
     0
  0
VERTEX
  8
LAYER1
 10
9.1333
 20
423.8286
 30
0
 70
     0
  0
VERTEX
  8
LAYER1
 10
9.102
 20
423.838
 30
0
 70
     0
  0
VERTEX
  8
LAYER1
 10
9.0738
 20
423.8528
 30
0
 70
     0
  0
VERTEX
  8
LAYER1
 10
9.0491
 20
423.8723
 30
0
 70
     0
  0
VERTEX
  8
LAYER1
 10
9.0286
 20
423.896
 30
0
 70
     0
  0
VERTEX
  8
LAYER1
 10
9.0132
 20
423.9231
 30
0
 70
     0
  0
VERTEX
  8
LAYER1
 10
9.0034
 20
423.953
 30
0
 70
     0
  0
VERTEX
  8
LAYER1
 10
9
 20
423.985
 30
0
 70
     0
  0
VERTEX
  8
LAYER1
 10
9
 20
423.985
 30
0
 70
     0
  0
VERTEX
  8
LAYER1
 10
9.0034
 20
424.0171
 30
0
 70
     0
  0
VERTEX
  8
LAYER1
 10
9.0132
 20
424.047
 30
0
 70
     0
  0
VERTEX
  8
LAYER1
 10
9.0286
 20
424.0741
 30
0
 70
     0
  0
VERTEX
  8
LAYER1
 10
9.0491
 20
424.0978
 30
0
 70
     0
  0
VERTEX
  8
LAYER1
 10
9.0738
 20
424.1173
 30
0
 70
     0
  0
VERTEX
  8
LAYER1
 10
9.102
 20
424.1321
 30
0
 70
     0
  0
VERTEX
  8
LAYER1
 10
9.1333
 20
424.1415
 30
0
 70
     0
  0
VERTEX
  8
LAYER1
 10
9.1667
 20
424.1448
 30
0
 70
     0
  0
VERTEX
  8
LAYER1
 10
9.1667
 20
424.1448
 30
0
 70
     0
  0
VERTEX
  8
LAYER1
 10
9.2001
 20
424.1415
 30
0
 70
     0
  0
VERTEX
  8
LAYER1
 10
9.2313
 20
424.1321
 30
0
 70
     0
  0
VERTEX
  8
LAYER1
 10
9.2596
 20
424.1173
 30
0
 70
     0
  0
VERTEX
  8
LAYER1
 10
9.2843
 20
424.0978
 30
0
 70
     0
  0
VERTEX
  8
LAYER1
 10
9.3047
 20
424.0741
 30
0
 70
     0
  0
VERTEX
  8
LAYER1
 10
9.3201
 20
424.047
 30
0
 70
     0
  0
VERTEX
  8
LAYER1
 10
9.3299
 20
424.0171
 30
0
 70
     0
  0
VERTEX
  8
LAYER1
 10
9.3333
 20
423.985
 30
0
 70
     0
  0
SEQEND
  0
POLYLINE
  8
LAYER1
  6
CONTINUOUS
 62
     7
 66
     1
 70
     0
 40
0.0039
 41
0.0039
  0
VERTEX
  8
LAYER1
 10
9.5278
 20
424.1448
 30
0
 70
     0
  0
VERTEX
  8
LAYER1
 10
9.5139
 20
424.1448
 30
0
 70
     0
  0
VERTEX
  8
LAYER1
 10
9.5
 20
424.1448
 30
0
 70
     0
  0
VERTEX
  8
LAYER1
 10
9.4722
 20
424.1587
 30
0
 70
     0
  0
VERTEX
  8
LAYER1
 10
9.4583
 20
424.1725
 30
0
 70
     0
  0
VERTEX
  8
LAYER1
 10
9.4444
 20
424.1864
 30
0
 70
     0
  0
VERTEX
  8
LAYER1
 10
9.4444
 20
424.1864
 30
0
 70
     0
  0
VERTEX
  8
LAYER1
 10
9.4306
 20
424.1864
 30
0
 70
     0
  0
VERTEX
  8
LAYER1
 10
9.4306
 20
424.2003
 30
0
 70
     0
  0
SEQEND
  0
LINE
  8
LAYER1
  6
CONTINUOUS
 62
     7
 10
9.5278
 20
424.1448
 30
0
 11
10.1944
 21
424.1448
 31
0
  0
POLYLINE
  8
LAYER1
  6
CONTINUOUS
 62
     7
 66
     1
 70
     0
 40
0.0039
 41
0.0039
  0
VERTEX
  8
LAYER1
 10
9.4306
 20
423.7698
 30
0
 70
     0
  0
VERTEX
  8
LAYER1
 10
9.4444
 20
423.7837
 30
0
 70
     0
  0
VERTEX
  8
LAYER1
 10
9.4583
 20
423.7975
 30
0
 70
     0
  0
VERTEX
  8
LAYER1
 10
9.5
 20
423.8114
 30
0
 70
     0
  0
VERTEX
  8
LAYER1
 10
9.5278
 20
423.8114
 30
0
 70
     0
  0
SEQEND
  0
POLYLINE
  8
LAYER1
  6
CONTINUOUS
 62
     7
 66
     1
 70
     0
 40
0.0039
 41
0.0039
  0
VERTEX
  8
LAYER1
 10
9.4306
 20
423.7698
 30
0
 70
     0
  0
VERTEX
  8
LAYER1
 10
9.4167
 20
423.7559
 30
0
 70
     0
  0
VERTEX
  8
LAYER1
 10
9.4028
 20
423.742
 30
0
 70
     0
  0
VERTEX
  8
LAYER1
 10
9.4028
 20
423.742
 30
0
 70
     0
  0
VERTEX
  8
LAYER1
 10
9.375
 20
423.7142
 30
0
 70
     0
  0
VERTEX
  8
LAYER1
 10
9.3194
 20
423.6725
 30
0
 70
     0
  0
VERTEX
  8
LAYER1
 10
9.25
 20
423.6448
 30
0
 70
     0
  0
VERTEX
  8
LAYER1
 10
9.1944
 20
423.6309
 30
0
 70
     0
  0
VERTEX
  8
LAYER1
 10
9.1528
 20
423.6309
 30
0
 70
     0
  0
VERTEX
  8
LAYER1
 10
9.125
 20
423.6309
 30
0
 70
     0
  0
VERTEX
  8
LAYER1
 10
9.0556
 20
423.6448
 30
0
 70
     0
  0
VERTEX
  8
LAYER1
 10
8.9861
 20
423.6725
 30
0
 70
     0
  0
VERTEX
  8
LAYER1
 10
8.9306
 20
423.7142
 30
0
 70
     0
  0
VERTEX
  8
LAYER1
 10
8.9028
 20
423.742
 30
0
 70
     0
  0
VERTEX
  8
LAYER1
 10
8.875
 20
423.7698
 30
0
 70
     0
  0
VERTEX
  8
LAYER1
 10
8.8472
 20
423.8114
 30
0
 70
     0
  0
VERTEX
  8
LAYER1
 10
8.8194
 20
423.867
 30
0
 70
     0
  0
VERTEX
  8
LAYER1
 10
8.8056
 20
423.9364
 30
0
 70
     0
  0
VERTEX
  8
LAYER1
 10
8.8056
 20
423.9781
 30
0
 70
     0
  0
VERTEX
  8
LAYER1
 10
8.8056
 20
424.0198
 30
0
 70
     0
  0
VERTEX
  8
LAYER1
 10
8.8194
 20
424.0892
 30
0
 70
     0
  0
VERTEX
  8
LAYER1
 10
8.8472
 20
424.1587
 30
0
 70
     0
  0
VERTEX
  8
LAYER1
 10
8.875
 20
424.2003
 30
0
 70
     0
  0
VERTEX
  8
LAYER1
 10
8.9028
 20
424.2281
 30
0
 70
     0
  0
VERTEX
  8
LAYER1
 10
8.9306
 20
424.2559
 30
0
 70
     0
  0
VERTEX
  8
LAYER1
 10
8.9861
 20
424.2837
 30
0
 70
     0
  0
VERTEX
  8
LAYER1
 10
9.0417
 20
424.3114
 30
0
 70
     0
  0
VERTEX
  8
LAYER1
 10
9.125
 20
424.3253
 30
0
 70
     0
  0
VERTEX
  8
LAYER1
 10
9.1528
 20
424.3253
 30
0
 70
     0
  0
VERTEX
  8
LAYER1
 10
9.1944
 20
424.3253
 30
0
 70
     0
  0
VERTEX
  8
LAYER1
 10
9.2639
 20
424.3114
 30
0
 70
     0
  0
VERTEX
  8
LAYER1
 10
9.3194
 20
424.2837
 30
0
 70
     0
  0
VERTEX
  8
LAYER1
 10
9.375
 20
424.2559
 30
0
 70
     0
  0
VERTEX
  8
LAYER1
 10
9.4028
 20
424.2281
 30
0
 70
     0
  0
VERTEX
  8
LAYER1
 10
9.4167
 20
424.2142
 30
0
 70
     0
  0
VERTEX
  8
LAYER1
 10
9.4306
 20
424.2003
 30
0
 70
     0
  0
VERTEX
  8
LAYER1
 10
9.4306
 20
424.2003
 30
0
 70
     0
  0
SEQEND
  0
ENDBLK
  8
LAYER1
  0
BLOCK
  8
LAYER1
  2
Group12
 70
     0
 10
0
 20
0
 30
0
  0
ENDBLK
  8
LAYER1
  0
BLOCK
  8
LAYER1
  2
Group13
 70
     0
 10
0
 20
0
 30
0
  0
ENDBLK
  8
LAYER1
  0
BLOCK
  8
LAYER1
  2
Group14
 70
     0
 10
0
 20
0
 30
0
  0
ENDBLK
  8
LAYER1
  0
BLOCK
  8
LAYER1
  2
Group15
 70
     0
 10
0
 20
0
 30
0
  0
ENDBLK
  8
LAYER1
  0
BLOCK
  8
LAYER1
  2
Group16
 70
     0
 10
0
 20
0
 30
0
  0
LINE
  8
LAYER1
  6
CONTINUOUS
 62
     7
 10
10.1944
 20
423.8114
 30
0
 11
9.5278
 21
423.8114
 31
0
  0
LINE
  8
LAYER1
  6
CONTINUOUS
 62
     7
 10
10.3056
 20
425.0475
 30
0
 11
10.3056
 21
424.6031
 31
0
  0
LINE
  8
LAYER1
  6
CONTINUOUS
 62
     7
 10
10.625
 20
424.992
 30
0
 11
10.3056
 21
425.0475
 31
0
  0
LINE
  8
LAYER1
  6
CONTINUOUS
 62
     7
 10
10.625
 20
424.6587
 30
0
 11
10.3056
 21
424.6031
 31
0
  0
LINE
  8
LAYER1
  6
CONTINUOUS
 62
     7
 10
10.625
 20
424.992
 30
0
 11
10.625
 21
424.6587
 31
0
  0
LINE
  8
LAYER1
  6
CONTINUOUS
 62
     7
 10
10.8472
 20
424.9503
 30
0
 11
10.8472
 21
424.7003
 31
0
  0
LINE
  8
LAYER1
  6
CONTINUOUS
 62
     7
 10
10.7917
 20
424.9503
 30
0
 11
10.7917
 21
424.7003
 31
0
  0
LINE
  8
LAYER1
  6
CONTINUOUS
 62
     7
 10
10.7222
 20
424.9503
 30
0
 11
10.7222
 21
424.7003
 31
0
  0
LINE
  8
LAYER1
  6
CONTINUOUS
 62
     7
 10
10.6667
 20
424.9503
 30
0
 11
10.6667
 21
424.7003
 31
0
  0
LINE
  8
LAYER1
  6
CONTINUOUS
 62
     7
 10
10.2917
 20
424.9503
 30
0
 11
10.2917
 21
424.7003
 31
0
  0
LINE
  8
LAYER1
  6
CONTINUOUS
 62
     7
 10
10.2222
 20
424.9503
 30
0
 11
10.2222
 21
424.7003
 31
0
  0
LINE
  8
LAYER1
  6
CONTINUOUS
 62
     7
 10
10.1667
 20
424.9503
 30
0
 11
10.1667
 21
424.7003
 31
0
  0
LINE
  8
LAYER1
  6
CONTINUOUS
 62
     7
 10
10.0972
 20
424.9503
 30
0
 11
10.0972
 21
424.7003
 31
0
  0
LINE
  8
LAYER1
  6
CONTINUOUS
 62
     7
 10
10.0417
 20
424.9503
 30
0
 11
10.0417
 21
424.7003
 31
0
  0
LINE
  8
LAYER1
  6
CONTINUOUS
 62
     7
 10
10.8194
 20
424.9225
 30
0
 11
10.8194
 21
424.7281
 31
0
  0
LINE
  8
LAYER1
  6
CONTINUOUS
 62
     7
 10
10.75
 20
424.9225
 30
0
 11
10.75
 21
424.7281
 31
0
  0
LINE
  8
LAYER1
  6
CONTINUOUS
 62
     7
 10
10.6944
 20
424.9225
 30
0
 11
10.6944
 21
424.7281
 31
0
  0
LINE
  8
LAYER1
  6
CONTINUOUS
 62
     7
 10
10.25
 20
424.9225
 30
0
 11
10.25
 21
424.7281
 31
0
  0
LINE
  8
LAYER1
  6
CONTINUOUS
 62
     7
 10
10.1944
 20
424.9225
 30
0
 11
10.1944
 21
424.7281
 31
0
  0
LINE
  8
LAYER1
  6
CONTINUOUS
 62
     7
 10
10.125
 20
424.9225
 30
0
 11
10.125
 21
424.7281
 31
0
  0
LINE
  8
LAYER1
  6
CONTINUOUS
 62
     7
 10
10.0694
 20
424.9225
 30
0
 11
10.0694
 21
424.7281
 31
0
  0
LINE
  8
LAYER1
  6
CONTINUOUS
 62
     7
 10
10.9167
 20
424.9503
 30
0
 11
10.625
 21
424.9503
 31
0
  0
LINE
  8
LAYER1
  6
CONTINUOUS
 62
     7
 10
10.3056
 20
424.9503
 30
0
 11
10.0278
 21
424.9503
 31
0
  0
LINE
  8
LAYER1
  6
CONTINUOUS
 62
     7
 10
10.0417
 20
424.7003
 30
0
 11
10.3056
 21
424.7003
 31
0
  0
LINE
  8
LAYER1
  6
CONTINUOUS
 62
     7
 10
10.625
 20
424.7003
 30
0
 11
10.9167
 21
424.7003
 31
0
  0
LINE
  8
LAYER1
  6
CONTINUOUS
 62
     7
 10
9.5
 20
424.9503
 30
0
 11
10.3056
 21
425.0475
 31
0
  0
LINE
  8
LAYER1
  6
CONTINUOUS
 62
     7
 10
9.5
 20
424.8948
 30
0
 11
10.3056
 21
424.992
 31
0
  0
LINE
  8
LAYER1
  6
CONTINUOUS
 62
     7
 10
9.5
 20
424.7698
 30
0
 11
10.3056
 21
424.6587
 31
0
  0
LINE
  8
LAYER1
  6
CONTINUOUS
 62
     7
 10
9.5
 20
424.7003
 30
0
 11
10.3056
 21
424.6031
 31
0
  0
LINE
  8
LAYER1
  6
CONTINUOUS
 62
     7
 10
9.5
 20
424.9503
 30
0
 11
8.8056
 21
424.9503
 31
0
  0
LINE
  8
LAYER1
  6
CONTINUOUS
 62
     7
 10
8.8056
 20
424.8948
 30
0
 11
8.8056
 21
424.9503
 31
0
  0
LINE
  8
LAYER1
  6
CONTINUOUS
 62
     7
 10
9.5
 20
424.8948
 30
0
 11
8.8056
 21
424.8948
 31
0
  0
LINE
  8
LAYER1
  6
CONTINUOUS
 62
     7
 10
9.5
 20
424.7698
 30
0
 11
8.8056
 21
424.7698
 31
0
  0
LINE
  8
LAYER1
  6
CONTINUOUS
 62
     7
 10
8.8056
 20
424.7003
 30
0
 11
8.8056
 21
424.7698
 31
0
  0
LINE
  8
LAYER1
  6
CONTINUOUS
 62
     7
 10
9.5
 20
424.7003
 30
0
 11
8.8056
 21
424.7003
 31
0
  0
LINE
  8
LAYER1
  6
DASH1
 62
     7
 10
9
 20
424.7003
 30
0
 11
9
 21
424.7698
 31
0
  0
INSERT
  8
LAYER1
  2
Group12
 10
0
 20
0
 30
0
  0
LINE
  8
LAYER1
  6
CONTINUOUS
 62
     7
 10
9
 20
424.7142
 30
0
 11
9
 21
424.742
 31
0
  0
LINE
  8
LAYER1
  6
DASH1
 62
     7
 10
9
 20
424.8948
 30
0
 11
9
 21
424.9503
 31
0
  0
INSERT
  8
LAYER1
  2
Group13
 10
0
 20
0
 30
0
  0
LINE
  8
LAYER1
  6
CONTINUOUS
 62
     7
 10
9
 20
424.9087
 30
0
 11
9
 21
424.9364
 31
0
  0
LINE
  8
LAYER1
  6
DASH1
 62
     7
 10
9.3056
 20
424.7003
 30
0
 11
9.3056
 21
424.7698
 31
0
  0
INSERT
  8
LAYER1
  2
Group14
 10
0
 20
0
 30
0
  0
LINE
  8
LAYER1
  6
CONTINUOUS
 62
     7
 10
9.3056
 20
424.7142
 30
0
 11
9.3056
 21
424.742
 31
0
  0
LINE
  8
LAYER1
  6
DASH1
 62
     7
 10
9.3056
 20
424.8948
 30
0
 11
9.3056
 21
424.9503
 31
0
  0
INSERT
  8
LAYER1
  2
Group15
 10
0
 20
0
 30
0
  0
ENDBLK
  8
LAYER1
  0
BLOCK
  8
LAYER1
  2
Group17
 70
     0
 10
0
 20
0
 30
0
  0
LINE
  8
LAYER1
  6
CONTINUOUS
 62
     7
 10
9.3056
 20
424.9087
 30
0
 11
9.3056
 21
424.9364
 31
0
  0
LINE
  8
LAYER1
  6
CONTINUOUS
 62
     7
 10
0.5139
 20
424.9225
 30
0
 11
0.6667
 21
425.0614
 31
0
  0
LINE
  8
LAYER1
  6
CONTINUOUS
 62
     7
 10
0.6667
 20
425.3114
 30
0
 11
0.5139
 21
425.4364
 31
0
  0
ENDBLK
  8
LAYER1
  0
BLOCK
  8
LAYER1
  2
Group18
 70
     0
 10
0
 20
0
 30
0
  0
LINE
  8
LAYER1
  6
CONTINUOUS
 62
     7
 10
0.5139
 20
424.9225
 30
0
 11
0.5139
 21
425.4364
 31
0
  0
LINE
  8
LAYER1
  6
CONTINUOUS
 62
     7
 10
0.6667
 20
425.3114
 30
0
 11
0.6667
 21
425.0614
 31
0
  0
LINE
  8
LAYER1
  6
CONTINUOUS
 62
     7
 10
0.9861
 20
425.3114
 30
0
 11
0.9861
 21
425.0614
 31
0
  0
LINE
  8
LAYER1
  6
CONTINUOUS
 62
     7
 10
1.0417
 20
425.3114
 30
0
 11
1.0417
 21
425.0614
 31
0
  0
LINE
  8
LAYER1
  6
CONTINUOUS
 62
     7
 10
1.1111
 20
425.3114
 30
0
 11
1.1111
 21
425.0614
 31
0
  0
LINE
  8
LAYER1
  6
CONTINUOUS
 62
     7
 10
1.1667
 20
425.3114
 30
0
 11
1.1667
 21
425.0614
 31
0
  0
LINE
  8
LAYER1
  6
CONTINUOUS
 62
     7
 10
1.2361
 20
425.3114
 30
0
 11
1.2361
 21
425.0614
 31
0
  0
LINE
  8
LAYER1
  6
CONTINUOUS
 62
     7
 10
1.2917
 20
425.3114
 30
0
 11
1.2917
 21
425.0614
 31
0
  0
LINE
  8
LAYER1
  6
CONTINUOUS
 62
     7
 10
1.3611
 20
425.3114
 30
0
 11
1.3611
 21
425.0614
 31
0
  0
LINE
  8
LAYER1
  6
CONTINUOUS
 62
     7
 10
1.4167
 20
425.3114
 30
0
 11
1.4167
 21
425.0614
 31
0
  0
LINE
  8
LAYER1
  6
CONTINUOUS
 62
     7
 10
1.4861
 20
425.3114
 30
0
 11
1.4861
 21
425.0614
 31
0
  0
LINE
  8
LAYER1
  6
CONTINUOUS
 62
     7
 10
1.5417
 20
425.3114
 30
0
 11
1.5417
 21
425.0614
 31
0
  0
LINE
  8
LAYER1
  6
CONTINUOUS
 62
     7
 10
1.0139
 20
425.2698
 30
0
 11
1.0139
 21
425.0892
 31
0
  0
LINE
  8
LAYER1
  6
CONTINUOUS
 62
     7
 10
1.0694
 20
425.2698
 30
0
 11
1.0694
 21
425.0892
 31
0
  0
LINE
  8
LAYER1
  6
CONTINUOUS
 62
     7
 10
1.1389
 20
425.2698
 30
0
 11
1.1389
 21
425.0892
 31
0
  0
LINE
  8
LAYER1
  6
CONTINUOUS
 62
     7
 10
1.1944
 20
425.2698
 30
0
 11
1.1944
 21
425.0892
 31
0
  0
LINE
  8
LAYER1
  6
CONTINUOUS
 62
     7
 10
1.2639
 20
425.2698
 30
0
 11
1.2639
 21
425.0892
 31
0
  0
LINE
  8
LAYER1
  6
CONTINUOUS
 62
     7
 10
1.3194
 20
425.2698
 30
0
 11
1.3194
 21
425.0892
 31
0
  0
LINE
  8
LAYER1
  6
CONTINUOUS
 62
     7
 10
1.3889
 20
425.2698
 30
0
 11
1.3889
 21
425.0892
 31
0
  0
LINE
  8
LAYER1
  6
CONTINUOUS
 62
     7
 10
1.4444
 20
425.2698
 30
0
 11
1.4444
 21
425.0892
 31
0
  0
LINE
  8
LAYER1
  6
CONTINUOUS
 62
     7
 10
1.5139
 20
425.2698
 30
0
 11
1.5139
 21
425.0892
 31
0
  0
LINE
  8
LAYER1
  6
CONTINUOUS
 62
     7
 10
1.5694
 20
425.2698
 30
0
 11
1.5694
 21
425.0892
 31
0
  0
LINE
  8
LAYER1
  6
CONTINUOUS
 62
     7
 10
1.6111
 20
425.0614
 30
0
 11
1.6111
 21
425.3114
 31
0
  0
LINE
  8
LAYER1
  6
CONTINUOUS
 62
     7
 10
1.6667
 20
425.3114
 30
0
 11
1.6667
 21
425.0614
 31
0
  0
LINE
  8
LAYER1
  6
CONTINUOUS
 62
     7
 10
1.7361
 20
425.3114
 30
0
 11
1.7361
 21
425.0614
 31
0
  0
LINE
  8
LAYER1
  6
CONTINUOUS
 62
     7
 10
1.7917
 20
425.3114
 30
0
 11
1.7917
 21
425.0614
 31
0
  0
LINE
  8
LAYER1
  6
CONTINUOUS
 62
     7
 10
1.8611
 20
425.3114
 30
0
 11
1.8611
 21
425.0614
 31
0
  0
LINE
  8
LAYER1
  6
CONTINUOUS
 62
     7
 10
1.9167
 20
425.3114
 30
0
 11
1.9167
 21
425.0614
 31
0
  0
LINE
  8
LAYER1
  6
CONTINUOUS
 62
     7
 10
1.6389
 20
425.2698
 30
0
 11
1.6389
 21
425.0892
 31
0
  0
LINE
  8
LAYER1
  6
CONTINUOUS
 62
     7
 10
1.6944
 20
425.2698
 30
0
 11
1.6944
 21
425.0892
 31
0
  0
LINE
  8
LAYER1
  6
CONTINUOUS
 62
     7
 10
1.7639
 20
425.2698
 30
0
 11
1.7639
 21
425.0892
 31
0
  0
LINE
  8
LAYER1
  6
CONTINUOUS
 62
     7
 10
1.8194
 20
425.2698
 30
0
 11
1.8194
 21
425.0892
 31
0
  0
LINE
  8
LAYER1
  6
CONTINUOUS
 62
     7
 10
1.8889
 20
425.2698
 30
0
 11
1.8889
 21
425.0892
 31
0
  0
LINE
  8
LAYER1
  6
CONTINUOUS
 62
     7
 10
1.9444
 20
425.2698
 30
0
 11
1.9444
 21
425.0892
 31
0
  0
LINE
  8
LAYER1
  6
CONTINUOUS
 62
     7
 10
2.0139
 20
425.2698
 30
0
 11
2.0139
 21
425.0892
 31
0
  0
LINE
  8
LAYER1
  6
CONTINUOUS
 62
     7
 10
2.0139
 20
425.2698
 30
0
 11
1.9861
 21
425.3114
 31
0
  0
LINE
  8
LAYER1
  6
CONTINUOUS
 62
     7
 10
2.0139
 20
425.0892
 30
0
 11
1.9861
 21
425.0614
 31
0
  0
LINE
  8
LAYER1
  6
CONTINUOUS
 62
     7
 10
1.9861
 20
425.3114
 30
0
 11
0.6667
 21
425.3114
 31
0
  0
LINE
  8
LAYER1
  6
CONTINUOUS
 62
     7
 10
0.6667
 20
425.0614
 30
0
 11
1.9861
 21
425.0614
 31
0
  0
ENDBLK
  8
LAYER1
  0
BLOCK
  8
LAYER1
  2
Group19
 70
     0
 10
0
 20
0
 30
0
  0
INSERT
  8
LAYER1
  2
Group17
 10
0
 20
0
 30
0
  0
INSERT
  8
LAYER1
  2
Group18
 10
0
 20
0
 30
0
  0
ENDBLK
  8
LAYER1
  0
BLOCK
  8
LAYER1
  2
Group20
 70
     0
 10
0
 20
0
 30
0
  0
LINE
  8
LAYER1
  6
CONTINUOUS
 62
     7
 10
1.9861
 20
425.3114
 30
0
 11
1.9861
 21
425.0614
 31
0
  0
POLYLINE
  8
LAYER1
  6
CONTINUOUS
 62
     7
 66
     1
 70
     0
 40
0.0039
 41
0.0039
  0
VERTEX
  8
LAYER1
 10
12.9028
 20
424.9781
 30
0
 70
     0
  0
VERTEX
  8
LAYER1
 10
12.875
 20
424.9642
 30
0
 70
     0
  0
VERTEX
  8
LAYER1
 10
12.8333
 20
424.9642
 30
0
 70
     0
  0
VERTEX
  8
LAYER1
 10
12.8056
 20
424.9642
 30
0
 70
     0
  0
SEQEND
  0
POLYLINE
  8
LAYER1
  6
CONTINUOUS
 62
     7
 66
     1
 70
     0
 40
0.0039
 41
0.0039
  0
VERTEX
  8
LAYER1
 10
12.8056
 20
424.8392
 30
0
 70
     0
  0
VERTEX
  8
LAYER1
 10
12.8333
 20
424.8392
 30
0
 70
     0
  0
VERTEX
  8
LAYER1
 10
12.8889
 20
424.8253
 30
0
 70
     0
  0
VERTEX
  8
LAYER1
 10
12.9028
 20
424.8114
 30
0
 70
     0
  0
SEQEND
  0
LINE
  8
LAYER1
  6
CONTINUOUS
 62
     7
 10
13.125
 20
424.992
 30
0
 11
13.125
 21
424.7975
 31
0
  0
LINE
  8
LAYER1
  6
CONTINUOUS
 62
     7
 10
13.1944
 20
424.992
 30
0
 11
13.1944
 21
424.7975
 31
0
  0
LINE
  8
LAYER1
  6
CONTINUOUS
 62
     7
 10
13.25
 20
424.992
 30
0
 11
13.25
 21
424.7975
 31
0
  0
LINE
  8
LAYER1
  6
CONTINUOUS
 62
     7
 10
13.3194
 20
424.992
 30
0
 11
13.3194
 21
424.7975
 31
0
  0
LINE
  8
LAYER1
  6
CONTINUOUS
 62
     7
 10
13.375
 20
424.992
 30
0
 11
13.375
 21
424.7975
 31
0
  0
LINE
  8
LAYER1
  6
CONTINUOUS
 62
     7
 10
13.4444
 20
424.992
 30
0
 11
13.4444
 21
424.7975
 31
0
  0
LINE
  8
LAYER1
  6
CONTINUOUS
 62
     7
 10
13.5
 20
424.992
 30
0
 11
13.5
 21
424.7975
 31
0
  0
LINE
  8
LAYER1
  6
CONTINUOUS
 62
     7
 10
13.5694
 20
424.992
 30
0
 11
13.5694
 21
424.7975
 31
0
  0
LINE
  8
LAYER1
  6
CONTINUOUS
 62
     7
 10
13.625
 20
424.992
 30
0
 11
13.625
 21
424.7975
 31
0
  0
LINE
  8
LAYER1
  6
CONTINUOUS
 62
     7
 10
13.6944
 20
424.992
 30
0
 11
13.6944
 21
424.7975
 31
0
  0
LINE
  8
LAYER1
  6
CONTINUOUS
 62
     7
 10
13.75
 20
424.992
 30
0
 11
13.75
 21
424.7975
 31
0
  0
LINE
  8
LAYER1
  6
CONTINUOUS
 62
     7
 10
13.0972
 20
425.0198
 30
0
 11
13.0972
 21
424.7698
 31
0
  0
LINE
  8
LAYER1
  6
CONTINUOUS
 62
     7
 10
13.1528
 20
425.0198
 30
0
 11
13.1528
 21
424.7698
 31
0
  0
LINE
  8
LAYER1
  6
CONTINUOUS
 62
     7
 10
13.2222
 20
425.0198
 30
0
 11
13.2222
 21
424.7698
 31
0
  0
LINE
  8
LAYER1
  6
CONTINUOUS
 62
     7
 10
13.2778
 20
425.0198
 30
0
 11
13.2778
 21
424.7698
 31
0
  0
LINE
  8
LAYER1
  6
CONTINUOUS
 62
     7
 10
13.3472
 20
425.0198
 30
0
 11
13.3472
 21
424.7698
 31
0
  0
LINE
  8
LAYER1
  6
CONTINUOUS
 62
     7
 10
13.4028
 20
425.0198
 30
0
 11
13.4028
 21
424.7698
 31
0
  0
LINE
  8
LAYER1
  6
CONTINUOUS
 62
     7
 10
13.4722
 20
425.0198
 30
0
 11
13.4722
 21
424.7698
 31
0
  0
LINE
  8
LAYER1
  6
CONTINUOUS
 62
     7
 10
13.5278
 20
425.0198
 30
0
 11
13.5278
 21
424.7698
 31
0
  0
LINE
  8
LAYER1
  6
CONTINUOUS
 62
     7
 10
13.5972
 20
425.0198
 30
0
 11
13.5972
 21
424.7698
 31
0
  0
LINE
  8
LAYER1
  6
CONTINUOUS
 62
     7
 10
13.6528
 20
425.0198
 30
0
 11
13.6528
 21
424.7698
 31
0
  0
POLYLINE
  8
LAYER1
  6
CONTINUOUS
 62
     7
 66
     1
 70
     0
 40
0.0039
 41
0.0039
  0
VERTEX
  8
LAYER1
 10
12.9306
 20
424.992
 30
0
 70
     0
  0
VERTEX
  8
LAYER1
 10
12.9583
 20
425.0059
 30
0
 70
     0
  0
VERTEX
  8
LAYER1
 10
13
 20
425.0198
 30
0
 70
     0
  0
VERTEX
  8
LAYER1
 10
13.0139
 20
425.0198
 30
0
 70
     0
  0
SEQEND
  0
LINE
  8
LAYER1
  6
CONTINUOUS
 62
     7
 10
12.9306
 20
424.992
 30
0
 11
12.9028
 21
424.9781
 31
0
  0
POLYLINE
  8
LAYER1
  6
CONTINUOUS
 62
     7
 66
     1
 70
     0
 40
0.0039
 41
0.0039
  0
VERTEX
  8
LAYER1
 10
13.0139
 20
424.7698
 30
0
 70
     0
  0
VERTEX
  8
LAYER1
 10
13
 20
424.7698
 30
0
 70
     0
  0
VERTEX
  8
LAYER1
 10
12.9583
 20
424.7837
 30
0
 70
     0
  0
VERTEX
  8
LAYER1
 10
12.9306
 20
424.7975
 30
0
 70
     0
  0
SEQEND
  0
LINE
  8
LAYER1
  6
CONTINUOUS
 62
     7
 10
12.9306
 20
424.7975
 30
0
 11
12.9028
 21
424.8114
 31
0
  0
POLYLINE
  8
LAYER1
  6
CONTINUOUS
 62
     7
 66
     1
 70
     0
 40
0.0039
 41
0.0039
  0
VERTEX
  8
LAYER1
 10
11.9444
 20
424.8948
 30
0
 70
     0
  0
VERTEX
  8
LAYER1
 10
11.9499
 20
424.9217
 30
0
 70
     0
  0
VERTEX
  8
LAYER1
 10
11.9649
 20
424.9438
 30
0
 70
     0
  0
VERTEX
  8
LAYER1
 10
11.987
 20
424.9587
 30
0
 70
     0
  0
VERTEX
  8
LAYER1
 10
12.0139
 20
424.9642
 30
0
 70
     0
  0
SEQEND
  0
LINE
  8
LAYER1
  6
CONTINUOUS
 62
     7
 10
12.8056
 20
424.9642
 30
0
 11
12
 21
424.9642
 31
0
  0
POLYLINE
  8
LAYER1
  6
CONTINUOUS
 62
     7
 66
     1
 70
     0
 40
0.0039
 41
0.0039
  0
VERTEX
  8
LAYER1
 10
12.0139
 20
424.8253
 30
0
 70
     0
  0
VERTEX
  8
LAYER1
 10
11.987
 20
424.8308
 30
0
 70
     0
  0
VERTEX
  8
LAYER1
 10
11.9649
 20
424.8458
 30
0
 70
     0
  0
VERTEX
  8
LAYER1
 10
11.9499
 20
424.8678
 30
0
 70
     0
  0
VERTEX
  8
LAYER1
 10
11.9444
 20
424.8948
 30
0
 70
     0
  0
SEQEND
  0
LINE
  8
LAYER1
  6
CONTINUOUS
 62
     7
 10
12.8056
 20
424.8392
 30
0
 11
12
 21
424.8392
 31
0
  0
LINE
  8
LAYER1
  6
CONTINUOUS
 62
     7
 10
13.75
 20
424.992
 30
0
 11
13.7222
 21
425.0198
 31
0
  0
LINE
  8
LAYER1
  6
CONTINUOUS
 62
     7
 10
13.7222
 20
424.7698
 30
0
 11
13.75
 21
424.7975
 31
0
  0
LINE
  8
LAYER1
  6
CONTINUOUS
 62
     7
 10
13.0139
 20
425.0198
 30
0
 11
13.7222
 21
425.0198
 31
0
  0
LINE
  8
LAYER1
  6
CONTINUOUS
 62
     7
 10
13.7222
 20
424.7698
 30
0
 11
13.0139
 21
424.7698
 31
0
  0
ENDBLK
  8
LAYER1
  0
BLOCK
  8
LAYER1
  2
Group21
 70
     0
 10
0
 20
0
 30
0
  0
LINE
  8
LAYER1
  6
CONTINUOUS
 62
     7
 10
13.7222
 20
425.0198
 30
0
 11
13.7222
 21
424.7698
 31
0
  0
LINE
  8
LAYER1
  6
CONTINUOUS
 62
     7
 10
13.125
 20
424.1031
 30
0
 11
13.125
 21
423.9225
 31
0
  0
LINE
  8
LAYER1
  6
CONTINUOUS
 62
     7
 10
13.1944
 20
424.1031
 30
0
 11
13.1944
 21
423.9225
 31
0
  0
LINE
  8
LAYER1
  6
CONTINUOUS
 62
     7
 10
13.25
 20
424.1031
 30
0
 11
13.25
 21
423.9225
 31
0
  0
LINE
  8
LAYER1
  6
CONTINUOUS
 62
     7
 10
13.3194
 20
424.1031
 30
0
 11
13.3194
 21
423.9225
 31
0
  0
LINE
  8
LAYER1
  6
CONTINUOUS
 62
     7
 10
13.375
 20
424.1031
 30
0
 11
13.375
 21
423.9225
 31
0
  0
LINE
  8
LAYER1
  6
CONTINUOUS
 62
     7
 10
13.4444
 20
424.1031
 30
0
 11
13.4444
 21
423.9225
 31
0
  0
LINE
  8
LAYER1
  6
CONTINUOUS
 62
     7
 10
13.5
 20
424.1031
 30
0
 11
13.5
 21
423.9225
 31
0
  0
LINE
  8
LAYER1
  6
CONTINUOUS
 62
     7
 10
13.5694
 20
424.1031
 30
0
 11
13.5694
 21
423.9225
 31
0
  0
LINE
  8
LAYER1
  6
CONTINUOUS
 62
     7
 10
13.625
 20
424.1031
 30
0
 11
13.625
 21
423.9225
 31
0
  0
LINE
  8
LAYER1
  6
CONTINUOUS
 62
     7
 10
13.6944
 20
424.1031
 30
0
 11
13.6944
 21
423.9225
 31
0
  0
LINE
  8
LAYER1
  6
CONTINUOUS
 62
     7
 10
13.75
 20
424.1031
 30
0
 11
13.75
 21
423.9225
 31
0
  0
LINE
  8
LAYER1
  6
CONTINUOUS
 62
     7
 10
13.0972
 20
424.1448
 30
0
 11
13.0972
 21
423.8948
 31
0
  0
LINE
  8
LAYER1
  6
CONTINUOUS
 62
     7
 10
13.1528
 20
424.1448
 30
0
 11
13.1528
 21
423.8948
 31
0
  0
LINE
  8
LAYER1
  6
CONTINUOUS
 62
     7
 10
13.2222
 20
424.1448
 30
0
 11
13.2222
 21
423.8948
 31
0
  0
LINE
  8
LAYER1
  6
CONTINUOUS
 62
     7
 10
13.2778
 20
424.1448
 30
0
 11
13.2778
 21
423.8948
 31
0
  0
LINE
  8
LAYER1
  6
CONTINUOUS
 62
     7
 10
13.3472
 20
424.1448
 30
0
 11
13.3472
 21
423.8948
 31
0
  0
LINE
  8
LAYER1
  6
CONTINUOUS
 62
     7
 10
13.4028
 20
424.1448
 30
0
 11
13.4028
 21
423.8948
 31
0
  0
LINE
  8
LAYER1
  6
CONTINUOUS
 62
     7
 10
13.4722
 20
424.1448
 30
0
 11
13.4722
 21
423.8948
 31
0
  0
LINE
  8
LAYER1
  6
CONTINUOUS
 62
     7
 10
13.5278
 20
424.1448
 30
0
 11
13.5278
 21
423.8948
 31
0
  0
LINE
  8
LAYER1
  6
CONTINUOUS
 62
     7
 10
13.5972
 20
424.1448
 30
0
 11
13.5972
 21
423.8948
 31
0
  0
LINE
  8
LAYER1
  6
CONTINUOUS
 62
     7
 10
13.6528
 20
424.1448
 30
0
 11
13.6528
 21
423.8948
 31
0
  0
LINE
  8
LAYER1
  6
CONTINUOUS
 62
     7
 10
11.9444
 20
424.117
 30
0
 11
11.9444
 21
423.9087
 31
0
  0
POLYLINE
  8
LAYER1
  6
CONTINUOUS
 62
     7
 66
     1
 70
     0
 40
0.0039
 41
0.0039
  0
VERTEX
  8
LAYER1
 10
12.9028
 20
423.8392
 30
0
 70
     0
  0
VERTEX
  8
LAYER1
 10
12.9028
 20
423.8392
 30
0
 70
     0
  0
VERTEX
  8
LAYER1
 10
12.9167
 20
423.8531
 30
0
 70
     0
  0
VERTEX
  8
LAYER1
 10
12.9306
 20
423.867
 30
0
 70
     0
  0
VERTEX
  8
LAYER1
 10
12.9444
 20
423.8809
 30
0
 70
     0
  0
VERTEX
  8
LAYER1
 10
12.9583
 20
423.8948
 30
0
 70
     0
  0
VERTEX
  8
LAYER1
 10
12.9722
 20
423.8948
 30
0
 70
     0
  0
SEQEND
  0
POLYLINE
  8
LAYER1
  6
CONTINUOUS
 62
     7
 66
     1
 70
     0
 40
0.0039
 41
0.0039
  0
VERTEX
  8
LAYER1
 10
12.9028
 20
423.8392
 30
0
 70
     0
  0
VERTEX
  8
LAYER1
 10
12.9028
 20
423.8114
 30
0
 70
     0
  0
VERTEX
  8
LAYER1
 10
12.875
 20
423.7281
 30
0
 70
     0
  0
VERTEX
  8
LAYER1
 10
12.8472
 20
423.6587
 30
0
 70
     0
  0
VERTEX
  8
LAYER1
 10
12.8056
 20
423.5892
 30
0
 70
     0
  0
VERTEX
  8
LAYER1
 10
12.7778
 20
423.5614
 30
0
 70
     0
  0
VERTEX
  8
LAYER1
 10
12.7639
 20
423.5475
 30
0
 70
     0
  0
VERTEX
  8
LAYER1
 10
12.7222
 20
423.5198
 30
0
 70
     0
  0
VERTEX
  8
LAYER1
 10
12.6806
 20
423.492
 30
0
 70
     0
  0
VERTEX
  8
LAYER1
 10
12.625
 20
423.4642
 30
0
 70
     0
  0
VERTEX
  8
LAYER1
 10
12.5972
 20
423.4503
 30
0
 70
     0
  0
VERTEX
  8
LAYER1
 10
12.5556
 20
423.4364
 30
0
 70
     0
  0
VERTEX
  8
LAYER1
 10
12.5
 20
423.4225
 30
0
 70
     0
  0
VERTEX
  8
LAYER1
 10
12.4583
 20
423.4225
 30
0
 70
     0
  0
VERTEX
  8
LAYER1
 10
12.4306
 20
423.4225
 30
0
 70
     0
  0
VERTEX
  8
LAYER1
 10
12.4028
 20
423.4225
 30
0
 70
     0
  0
VERTEX
  8
LAYER1
 10
12.3611
 20
423.4225
 30
0
 70
     0
  0
VERTEX
  8
LAYER1
 10
12.3056
 20
423.4364
 30
0
 70
     0
  0
VERTEX
  8
LAYER1
 10
12.25
 20
423.4503
 30
0
 70
     0
  0
VERTEX
  8
LAYER1
 10
12.2222
 20
423.4642
 30
0
 70
     0
  0
VERTEX
  8
LAYER1
 10
12.1667
 20
423.492
 30
0
 70
     0
  0
VERTEX
  8
LAYER1
 10
12.125
 20
423.5198
 30
0
 70
     0
  0
VERTEX
  8
LAYER1
 10
12.0972
 20
423.5475
 30
0
 70
     0
  0
VERTEX
  8
LAYER1
 10
12.0833
 20
423.5614
 30
0
 70
     0
  0
VERTEX
  8
LAYER1
 10
12.0694
 20
423.5753
 30
0
 70
     0
  0
VERTEX
  8
LAYER1
 10
12.0417
 20
423.617
 30
0
 70
     0
  0
VERTEX
  8
LAYER1
 10
12.0139
 20
423.6587
 30
0
 70
     0
  0
VERTEX
  8
LAYER1
 10
11.9861
 20
423.7142
 30
0
 70
     0
  0
VERTEX
  8
LAYER1
 10
11.9722
 20
423.742
 30
0
 70
     0
  0
VERTEX
  8
LAYER1
 10
11.9583
 20
423.7837
 30
0
 70
     0
  0
VERTEX
  8
LAYER1
 10
11.9444
 20
423.8392
 30
0
 70
     0
  0
VERTEX
  8
LAYER1
 10
11.9444
 20
423.8809
 30
0
 70
     0
  0
VERTEX
  8
LAYER1
 10
11.9444
 20
423.9087
 30
0
 70
     0
  0
VERTEX
  8
LAYER1
 10
11.9444
 20
423.9087
 30
0
 70
     0
  0
SEQEND
  0
POLYLINE
  8
LAYER1
  6
CONTINUOUS
 62
     7
 66
     1
 70
     0
 40
0.0039
 41
0.0039
  0
VERTEX
  8
LAYER1
 10
12.9722
 20
424.1448
 30
0
 70
     0
  0
VERTEX
  8
LAYER1
 10
12.9583
 20
424.1448
 30
0
 70
     0
  0
VERTEX
  8
LAYER1
 10
12.9444
 20
424.1448
 30
0
 70
     0
  0
VERTEX
  8
LAYER1
 10
12.9306
 20
424.1587
 30
0
 70
     0
  0
VERTEX
  8
LAYER1
 10
12.9306
 20
424.1587
 30
0
 70
     0
  0
VERTEX
  8
LAYER1
 10
12.9167
 20
424.1725
 30
0
 70
     0
  0
VERTEX
  8
LAYER1
 10
12.9028
 20
424.1864
 30
0
 70
     0
  0
SEQEND
  0
POLYLINE
  8
LAYER1
  6
CONTINUOUS
 62
     7
 66
     1
 70
     0
 40
0.0039
 41
0.0039
  0
VERTEX
  8
LAYER1
 10
11.9444
 20
424.117
 30
0
 70
     0
  0
VERTEX
  8
LAYER1
 10
11.9444
 20
424.117
 30
0
 70
     0
  0
VERTEX
  8
LAYER1
 10
11.9444
 20
424.1448
 30
0
 70
     0
  0
VERTEX
  8
LAYER1
 10
11.9444
 20
424.1864
 30
0
 70
     0
  0
VERTEX
  8
LAYER1
 10
11.9583
 20
424.242
 30
0
 70
     0
  0
VERTEX
  8
LAYER1
 10
11.9722
 20
424.2837
 30
0
 70
     0
  0
VERTEX
  8
LAYER1
 10
11.9861
 20
424.3114
 30
0
 70
     0
  0
VERTEX
  8
LAYER1
 10
12.0139
 20
424.367
 30
0
 70
     0
  0
VERTEX
  8
LAYER1
 10
12.0417
 20
424.4087
 30
0
 70
     0
  0
VERTEX
  8
LAYER1
 10
12.0694
 20
424.4503
 30
0
 70
     0
  0
VERTEX
  8
LAYER1
 10
12.0833
 20
424.4642
 30
0
 70
     0
  0
VERTEX
  8
LAYER1
 10
12.0972
 20
424.4781
 30
0
 70
     0
  0
VERTEX
  8
LAYER1
 10
12.125
 20
424.5059
 30
0
 70
     0
  0
VERTEX
  8
LAYER1
 10
12.1667
 20
424.5337
 30
0
 70
     0
  0
VERTEX
  8
LAYER1
 10
12.2222
 20
424.5614
 30
0
 70
     0
  0
VERTEX
  8
LAYER1
 10
12.25
 20
424.5753
 30
0
 70
     0
  0
VERTEX
  8
LAYER1
 10
12.3056
 20
424.5892
 30
0
 70
     0
  0
VERTEX
  8
LAYER1
 10
12.3611
 20
424.6031
 30
0
 70
     0
  0
VERTEX
  8
LAYER1
 10
12.4028
 20
424.6031
 30
0
 70
     0
  0
VERTEX
  8
LAYER1
 10
12.4306
 20
424.6031
 30
0
 70
     0
  0
VERTEX
  8
LAYER1
 10
12.4583
 20
424.6031
 30
0
 70
     0
  0
VERTEX
  8
LAYER1
 10
12.5
 20
424.6031
 30
0
 70
     0
  0
VERTEX
  8
LAYER1
 10
12.5556
 20
424.5892
 30
0
 70
     0
  0
VERTEX
  8
LAYER1
 10
12.5972
 20
424.5753
 30
0
 70
     0
  0
VERTEX
  8
LAYER1
 10
12.625
 20
424.5614
 30
0
 70
     0
  0
VERTEX
  8
LAYER1
 10
12.6806
 20
424.5337
 30
0
 70
     0
  0
VERTEX
  8
LAYER1
 10
12.7222
 20
424.5059
 30
0
 70
     0
  0
VERTEX
  8
LAYER1
 10
12.7639
 20
424.4781
 30
0
 70
     0
  0
VERTEX
  8
LAYER1
 10
12.7778
 20
424.4642
 30
0
 70
     0
  0
VERTEX
  8
LAYER1
 10
12.8056
 20
424.4364
 30
0
 70
     0
  0
VERTEX
  8
LAYER1
 10
12.8472
 20
424.3809
 30
0
 70
     0
  0
VERTEX
  8
LAYER1
 10
12.875
 20
424.3114
 30
0
 70
     0
  0
VERTEX
  8
LAYER1
 10
12.9028
 20
424.2281
 30
0
 70
     0
  0
VERTEX
  8
LAYER1
 10
12.9028
 20
424.1864
 30
0
 70
     0
  0
SEQEND
  0
LINE
  8
LAYER1
  6
CONTINUOUS
 62
     7
 10
13.75
 20
424.1031
 30
0
 11
13.7222
 21
424.1448
 31
0
  0
LINE
  8
LAYER1
  6
CONTINUOUS
 62
     7
 10
13.7222
 20
423.8948
 30
0
 11
13.75
 21
423.9225
 31
0
  0
LINE
  8
LAYER1
  6
CONTINUOUS
 62
     7
 10
12.9722
 20
424.1448
 30
0
 11
13.7222
 21
424.1448
 31
0
  0
LINE
  8
LAYER1
  6
CONTINUOUS
 62
     7
 10
13.7222
 20
423.8948
 30
0
 11
12.9722
 21
423.8948
 31
0
  0
ENDBLK
  8
LAYER1
  0
BLOCK
  8
LAYER1
  2
Group22
 70
     0
 10
0
 20
0
 30
0
  0
LINE
  8
LAYER1
  6
CONTINUOUS
 62
     7
 10
5.0833
 20
420.7698
 30
0
 11
5.0833
 21
421.2559
 31
0
  0
POLYLINE
  8
LAYER1
  6
CONTINUOUS
 62
     7
 66
     1
 70
     0
 40
0.0039
 41
0.0039
  0
VERTEX
  8
LAYER1
 10
5.0833
 20
420.7698
 30
0
 70
     0
  0
VERTEX
  8
LAYER1
 10
5.0694
 20
420.7698
 30
0
 70
     0
  0
VERTEX
  8
LAYER1
 10
5.0278
 20
420.7975
 30
0
 70
     0
  0
VERTEX
  8
LAYER1
 10
5.0139
 20
420.8114
 30
0
 70
     0
  0
VERTEX
  8
LAYER1
 10
5
 20
420.8253
 30
0
 70
     0
  0
VERTEX
  8
LAYER1
 10
4.9583
 20
420.8809
 30
0
 70
     0
  0
VERTEX
  8
LAYER1
 10
4.9444
 20
420.9225
 30
0
 70
     0
  0
VERTEX
  8
LAYER1
 10
4.9306
 20
420.992
 30
0
 70
     0
  0
VERTEX
  8
LAYER1
 10
4.9306
 20
421.0198
 30
0
 70
     0
  0
VERTEX
  8
LAYER1
 10
4.9306
 20
421.0475
 30
0
 70
     0
  0
VERTEX
  8
LAYER1
 10
4.9444
 20
421.1031
 30
0
 70
     0
  0
VERTEX
  8
LAYER1
 10
4.9583
 20
421.1448
 30
0
 70
     0
  0
VERTEX
  8
LAYER1
 10
5
 20
421.2003
 30
0
 70
     0
  0
VERTEX
  8
LAYER1
 10
5.0139
 20
421.2142
 30
0
 70
     0
  0
VERTEX
  8
LAYER1
 10
5.0278
 20
421.2281
 30
0
 70
     0
  0
VERTEX
  8
LAYER1
 10
5.0556
 20
421.242
 30
0
 70
     0
  0
VERTEX
  8
LAYER1
 10
5.0833
 20
421.2559
 30
0
 70
     0
  0
SEQEND
  0
ENDBLK
  8
LAYER1
  0
BLOCK
  8
LAYER1
  2
Group23
 70
     0
 10
0
 20
0
 30
0
  0
LINE
  8
LAYER1
  6
CONTINUOUS
 62
     7
 10
13.7222
 20
424.1448
 30
0
 11
13.7222
 21
423.8948
 31
0
  0
LINE
  8
LAYER1
  6
CONTINUOUS
 62
     7
 10
5.2917
 20
420.8948
 30
0
 11
5.2917
 21
421.1448
 31
0
  0
LINE
  8
LAYER1
  6
CONTINUOUS
 62
     7
 10
5.3611
 20
420.8948
 30
0
 11
5.3611
 21
421.1448
 31
0
  0
LINE
  8
LAYER1
  6
CONTINUOUS
 62
     7
 10
5.4167
 20
420.8948
 30
0
 11
5.4167
 21
421.1448
 31
0
  0
LINE
  8
LAYER1
  6
CONTINUOUS
 62
     7
 10
5.4861
 20
420.8948
 30
0
 11
5.4861
 21
421.1448
 31
0
  0
LINE
  8
LAYER1
  6
CONTINUOUS
 62
     7
 10
5.5417
 20
420.8948
 30
0
 11
5.5417
 21
421.1448
 31
0
  0
LINE
  8
LAYER1
  6
CONTINUOUS
 62
     7
 10
5.6111
 20
420.8948
 30
0
 11
5.6111
 21
421.1448
 31
0
  0
LINE
  8
LAYER1
  6
CONTINUOUS
 62
     7
 10
5.6667
 20
420.8948
 30
0
 11
5.6667
 21
421.1448
 31
0
  0
LINE
  8
LAYER1
  6
CONTINUOUS
 62
     7
 10
5.3333
 20
420.9225
 30
0
 11
5.3333
 21
421.1031
 31
0
  0
LINE
  8
LAYER1
  6
CONTINUOUS
 62
     7
 10
5.3889
 20
420.9225
 30
0
 11
5.3889
 21
421.1031
 31
0
  0
LINE
  8
LAYER1
  6
CONTINUOUS
 62
     7
 10
5.4583
 20
420.9225
 30
0
 11
5.4583
 21
421.1031
 31
0
  0
LINE
  8
LAYER1
  6
CONTINUOUS
 62
     7
 10
5.5139
 20
420.9225
 30
0
 11
5.5139
 21
421.1031
 31
0
  0
LINE
  8
LAYER1
  6
CONTINUOUS
 62
     7
 10
5.5833
 20
420.9225
 30
0
 11
5.5833
 21
421.1031
 31
0
  0
LINE
  8
LAYER1
  6
CONTINUOUS
 62
     7
 10
5.6389
 20
420.9225
 30
0
 11
5.6389
 21
421.1031
 31
0
  0
LINE
  8
LAYER1
  6
CONTINUOUS
 62
     7
 10
5.7083
 20
420.9225
 30
0
 11
5.7083
 21
421.1031
 31
0
  0
LINE
  8
LAYER1
  6
CONTINUOUS
 62
     7
 10
5.7639
 20
420.9225
 30
0
 11
5.7639
 21
421.1031
 31
0
  0
INSERT
  8
LAYER1
  2
Group22
 10
0
 20
0
 30
0
  0
LINE
  8
LAYER1
  6
CONTINUOUS
 62
     7
 10
5.0833
 20
420.8114
 30
0
 11
5.0833
 21
421.2142
 31
0
  0
LINE
  8
LAYER1
  6
CONTINUOUS
 62
     7
 10
5.7361
 20
421.1448
 30
0
 11
5.7639
 21
421.1031
 31
0
  0
LINE
  8
LAYER1
  6
CONTINUOUS
 62
     7
 10
5.7361
 20
420.8948
 30
0
 11
5.7639
 21
420.9225
 31
0
  0
LINE
  8
LAYER1
  6
CONTINUOUS
 62
     7
 10
5.0833
 20
421.1448
 30
0
 11
5.7361
 21
421.1448
 31
0
  0
LINE
  8
LAYER1
  6
CONTINUOUS
 62
     7
 10
5.7361
 20
420.8948
 30
0
 11
5.0833
 21
420.8948
 31
0
  0
ENDBLK
  8
LAYER1
  0
BLOCK
  8
LAYER1
  2
Group24
 70
     0
 10
0
 20
0
 30
0
  0
LINE
  8
LAYER1
  6
CONTINUOUS
 62
     7
 10
5.7361
 20
420.8948
 30
0
 11
5.7361
 21
421.1448
 31
0
  0
LINE
  8
LAYER1
  6
CONTINUOUS
 62
     7
 10
4.1389
 20
425.2837
 30
0
 11
4.1389
 21
425.0337
 31
0
  0
LINE
  8
LAYER1
  6
CONTINUOUS
 62
     7
 10
4.4444
 20
425.2837
 30
0
 11
4.4444
 21
425.0337
 31
0
  0
LINE
  8
LAYER1
  6
CONTINUOUS
 62
     7
 10
4.5139
 20
425.2837
 30
0
 11
4.5139
 21
425.0337
 31
0
  0
LINE
  8
LAYER1
  6
CONTINUOUS
 62
     7
 10
4.5694
 20
425.2837
 30
0
 11
4.5694
 21
425.0337
 31
0
  0
LINE
  8
LAYER1
  6
CONTINUOUS
 62
     7
 10
4.6389
 20
425.2837
 30
0
 11
4.6389
 21
425.0337
 31
0
  0
LINE
  8
LAYER1
  6
CONTINUOUS
 62
     7
 10
4.6944
 20
425.2837
 30
0
 11
4.6944
 21
425.0337
 31
0
  0
LINE
  8
LAYER1
  6
CONTINUOUS
 62
     7
 10
4.7639
 20
425.2837
 30
0
 11
4.7639
 21
425.0337
 31
0
  0
LINE
  8
LAYER1
  6
CONTINUOUS
 62
     7
 10
4.8194
 20
425.2837
 30
0
 11
4.8194
 21
425.0337
 31
0
  0
LINE
  8
LAYER1
  6
CONTINUOUS
 62
     7
 10
4.8889
 20
425.2837
 30
0
 11
4.8889
 21
425.0337
 31
0
  0
LINE
  8
LAYER1
  6
CONTINUOUS
 62
     7
 10
4.9444
 20
425.2837
 30
0
 11
4.9444
 21
425.0337
 31
0
  0
LINE
  8
LAYER1
  6
CONTINUOUS
 62
     7
 10
5.0139
 20
425.2837
 30
0
 11
5.0139
 21
425.0337
 31
0
  0
LINE
  8
LAYER1
  6
CONTINUOUS
 62
     7
 10
4.4861
 20
425.2559
 30
0
 11
4.4861
 21
425.0753
 31
0
  0
LINE
  8
LAYER1
  6
CONTINUOUS
 62
     7
 10
4.5417
 20
425.2559
 30
0
 11
4.5417
 21
425.0753
 31
0
  0
LINE
  8
LAYER1
  6
CONTINUOUS
 62
     7
 10
4.6111
 20
425.2559
 30
0
 11
4.6111
 21
425.0753
 31
0
  0
LINE
  8
LAYER1
  6
CONTINUOUS
 62
     7
 10
4.6667
 20
425.2559
 30
0
 11
4.6667
 21
425.0753
 31
0
  0
LINE
  8
LAYER1
  6
CONTINUOUS
 62
     7
 10
4.7361
 20
425.2559
 30
0
 11
4.7361
 21
425.0753
 31
0
  0
LINE
  8
LAYER1
  6
CONTINUOUS
 62
     7
 10
4.7917
 20
425.2559
 30
0
 11
4.7917
 21
425.0753
 31
0
  0
LINE
  8
LAYER1
  6
CONTINUOUS
 62
     7
 10
4.8611
 20
425.2559
 30
0
 11
4.8611
 21
425.0753
 31
0
  0
LINE
  8
LAYER1
  6
CONTINUOUS
 62
     7
 10
4.9167
 20
425.2559
 30
0
 11
4.9167
 21
425.0753
 31
0
  0
LINE
  8
LAYER1
  6
CONTINUOUS
 62
     7
 10
4.9861
 20
425.2559
 30
0
 11
4.9861
 21
425.0753
 31
0
  0
LINE
  8
LAYER1
  6
CONTINUOUS
 62
     7
 10
5.0417
 20
425.2559
 30
0
 11
5.0417
 21
425.0753
 31
0
  0
LINE
  8
LAYER1
  6
CONTINUOUS
 62
     7
 10
5.0694
 20
425.0337
 30
0
 11
5.0694
 21
425.2837
 31
0
  0
LINE
  8
LAYER1
  6
CONTINUOUS
 62
     7
 10
5.1389
 20
425.2837
 30
0
 11
5.1389
 21
425.0337
 31
0
  0
LINE
  8
LAYER1
  6
CONTINUOUS
 62
     7
 10
5.1944
 20
425.2837
 30
0
 11
5.1944
 21
425.0337
 31
0
  0
LINE
  8
LAYER1
  6
CONTINUOUS
 62
     7
 10
5.2639
 20
425.2837
 30
0
 11
5.2639
 21
425.0337
 31
0
  0
LINE
  8
LAYER1
  6
CONTINUOUS
 62
     7
 10
5.3194
 20
425.2837
 30
0
 11
5.3194
 21
425.0337
 31
0
  0
LINE
  8
LAYER1
  6
CONTINUOUS
 62
     7
 10
5.3889
 20
425.2837
 30
0
 11
5.3889
 21
425.0337
 31
0
  0
LINE
  8
LAYER1
  6
CONTINUOUS
 62
     7
 10
5.1111
 20
425.2559
 30
0
 11
5.1111
 21
425.0753
 31
0
  0
LINE
  8
LAYER1
  6
CONTINUOUS
 62
     7
 10
5.1667
 20
425.2559
 30
0
 11
5.1667
 21
425.0753
 31
0
  0
LINE
  8
LAYER1
  6
CONTINUOUS
 62
     7
 10
5.2361
 20
425.2559
 30
0
 11
5.2361
 21
425.0753
 31
0
  0
LINE
  8
LAYER1
  6
CONTINUOUS
 62
     7
 10
5.2917
 20
425.2559
 30
0
 11
5.2917
 21
425.0753
 31
0
  0
LINE
  8
LAYER1
  6
CONTINUOUS
 62
     7
 10
5.3611
 20
425.2559
 30
0
 11
5.3611
 21
425.0753
 31
0
  0
LINE
  8
LAYER1
  6
CONTINUOUS
 62
     7
 10
5.4167
 20
425.2559
 30
0
 11
5.4167
 21
425.0753
 31
0
  0
LINE
  8
LAYER1
  6
CONTINUOUS
 62
     7
 10
5.4861
 20
425.2559
 30
0
 11
5.4861
 21
425.0753
 31
0
  0
LINE
  8
LAYER1
  6
CONTINUOUS
 62
     7
 10
5.4861
 20
425.2559
 30
0
 11
5.4444
 21
425.2837
 31
0
  0
LINE
  8
LAYER1
  6
CONTINUOUS
 62
     7
 10
5.4861
 20
425.0753
 30
0
 11
5.4444
 21
425.0337
 31
0
  0
LINE
  8
LAYER1
  6
CONTINUOUS
 62
     7
 10
5.4444
 20
425.2837
 30
0
 11
4.1389
 21
425.2837
 31
0
  0
LINE
  8
LAYER1
  6
CONTINUOUS
 62
     7
 10
4.1389
 20
425.0337
 30
0
 11
5.4444
 21
425.0337
 31
0
  0
ENDBLK
  8
LAYER1
  0
BLOCK
  8
LAYER1
  2
Group25
 70
     0
 10
0
 20
0
 30
0
  0
LINE
  8
LAYER1
  6
CONTINUOUS
 62
     7
 10
5.4444
 20
425.2837
 30
0
 11
5.4444
 21
425.0337
 31
0
  0
POLYLINE
  8
LAYER1
  6
CONTINUOUS
 62
     7
 66
     1
 70
     0
 40
0.0039
 41
0.0039
  0
VERTEX
  8
LAYER1
 10
4.0139
 20
424.9087
 30
0
 70
     0
  0
VERTEX
  8
LAYER1
 10
4
 20
424.9364
 30
0
 70
     0
  0
VERTEX
  8
LAYER1
 10
3.9722
 20
424.992
 30
0
 70
     0
  0
VERTEX
  8
LAYER1
 10
3.9583
 20
425.0614
 30
0
 70
     0
  0
VERTEX
  8
LAYER1
 10
3.9444
 20
425.1309
 30
0
 70
     0
  0
VERTEX
  8
LAYER1
 10
3.9444
 20
425.1725
 30
0
 70
     0
  0
VERTEX
  8
LAYER1
 10
3.9444
 20
425.2003
 30
0
 70
     0
  0
VERTEX
  8
LAYER1
 10
3.9583
 20
425.2698
 30
0
 70
     0
  0
VERTEX
  8
LAYER1
 10
3.9722
 20
425.3392
 30
0
 70
     0
  0
VERTEX
  8
LAYER1
 10
4
 20
425.3948
 30
0
 70
     0
  0
VERTEX
  8
LAYER1
 10
4.0139
 20
425.4225
 30
0
 70
     0
  0
SEQEND
  0
POLYLINE
  8
LAYER1
  6
CONTINUOUS
 62
     7
 66
     1
 70
     0
 40
0.0039
 41
0.0039
  0
VERTEX
  8
LAYER1
 10
3.9722
 20
424.9087
 30
0
 70
     0
  0
VERTEX
  8
LAYER1
 10
3.9583
 20
424.9364
 30
0
 70
     0
  0
VERTEX
  8
LAYER1
 10
3.9444
 20
424.992
 30
0
 70
     0
  0
VERTEX
  8
LAYER1
 10
3.9306
 20
425.0614
 30
0
 70
     0
  0
VERTEX
  8
LAYER1
 10
3.9167
 20
425.1309
 30
0
 70
     0
  0
VERTEX
  8
LAYER1
 10
3.9167
 20
425.1725
 30
0
 70
     0
  0
VERTEX
  8
LAYER1
 10
3.9167
 20
425.2003
 30
0
 70
     0
  0
VERTEX
  8
LAYER1
 10
3.9306
 20
425.2698
 30
0
 70
     0
  0
VERTEX
  8
LAYER1
 10
3.9444
 20
425.3392
 30
0
 70
     0
  0
VERTEX
  8
LAYER1
 10
3.9583
 20
425.3948
 30
0
 70
     0
  0
VERTEX
  8
LAYER1
 10
3.9722
 20
425.4225
 30
0
 70
     0
  0
SEQEND
  0
ENDBLK
  8
LAYER1
  0
BLOCK
  8
LAYER1
  2
Group26
 70
     0
 10
0
 20
0
 30
0
  0
INSERT
  8
LAYER1
  2
Group24
 10
0
 20
0
 30
0
  0
INSERT
  8
LAYER1
  2
Group25
 10
0
 20
0
 30
0
  0
ENDBLK
  8
LAYER1
  0
BLOCK
  8
LAYER1
  2
Group27
 70
     0
 10
0
 20
0
 30
0
  0
CIRCLE
  8
LAYER1
 10
5.8681
 20
425.1656
 30
0
 40
0.1319
  0
CIRCLE
  8
LAYER1
 10
5.8819
 20
425.1517
 30
0
 40
0.1042
  0
LINE
  8
LAYER1
  6
CONTINUOUS
 62
     7
 10
5.7361
 20
425.4225
 30
0
 11
5.9861
 21
425.4225
 31
0
  0
LINE
  8
LAYER1
  6
CONTINUOUS
 62
     7
 10
5.7361
 20
424.9087
 30
0
 11
5.7361
 21
425.4225
 31
0
  0
ENDBLK
  8
LAYER1
  0
BLOCK
  8
LAYER1
  2
Group28
 70
     0
 10
0
 20
0
 30
0
  0
POLYLINE
  8
LAYER1
  6
CONTINUOUS
 62
     7
 66
     1
 70
     0
 40
0.0039
 41
0.0039
  0
VERTEX
  8
LAYER1
 10
5.7361
 20
424.9087
 30
0
 70
     0
  0
VERTEX
  8
LAYER1
 10
5.9861
 20
424.9087
 30
0
 70
     0
  0
VERTEX
  8
LAYER1
 10
5.9861
 20
425.4225
 30
0
 70
     0
  0
SEQEND
  0
LINE
  8
LAYER1
  6
CONTINUOUS
 62
     7
 10
10.2083
 20
426.2281
 30
0
 11
10.2083
 21
427.117
 31
0
  0
LINE
  8
LAYER1
  6
CONTINUOUS
 62
     7
 10
10.7083
 20
426.3392
 30
0
 11
10.7083
 21
427.0059
 31
0
  0
LINE
  8
LAYER1
  6
CONTINUOUS
 62
     7
 10
10.2083
 20
427.117
 30
0
 11
10.7083
 21
427.0059
 31
0
  0
LINE
  8
LAYER1
  6
CONTINUOUS
 62
     7
 10
10.2083
 20
426.2281
 30
0
 11
10.7083
 21
426.3392
 31
0
  0
POLYLINE
  8
LAYER1
  6
CONTINUOUS
 62
     7
 66
     1
 70
     0
 40
0.0039
 41
0.0039
  0
VERTEX
  8
LAYER1
 10
10.2083
 20
426.117
 30
0
 70
     0
  0
VERTEX
  8
LAYER1
 10
10.1806
 20
426.1309
 30
0
 70
     0
  0
VERTEX
  8
LAYER1
 10
10.1389
 20
426.1587
 30
0
 70
     0
  0
VERTEX
  8
LAYER1
 10
10.0972
 20
426.1864
 30
0
 70
     0
  0
VERTEX
  8
LAYER1
 10
10.0694
 20
426.2142
 30
0
 70
     0
  0
VERTEX
  8
LAYER1
 10
10.0417
 20
426.242
 30
0
 70
     0
  0
VERTEX
  8
LAYER1
 10
10.0139
 20
426.2698
 30
0
 70
     0
  0
VERTEX
  8
LAYER1
 10
9.9861
 20
426.3114
 30
0
 70
     0
  0
VERTEX
  8
LAYER1
 10
9.9444
 20
426.367
 30
0
 70
     0
  0
VERTEX
  8
LAYER1
 10
9.9167
 20
426.4225
 30
0
 70
     0
  0
VERTEX
  8
LAYER1
 10
9.8889
 20
426.4781
 30
0
 70
     0
  0
VERTEX
  8
LAYER1
 10
9.875
 20
426.5337
 30
0
 70
     0
  0
VERTEX
  8
LAYER1
 10
9.8611
 20
426.5892
 30
0
 70
     0
  0
VERTEX
  8
LAYER1
 10
9.8611
 20
426.6448
 30
0
 70
     0
  0
VERTEX
  8
LAYER1
 10
9.8611
 20
426.6725
 30
0
 70
     0
  0
VERTEX
  8
LAYER1
 10
9.8611
 20
426.7003
 30
0
 70
     0
  0
VERTEX
  8
LAYER1
 10
9.8611
 20
426.7559
 30
0
 70
     0
  0
VERTEX
  8
LAYER1
 10
9.875
 20
426.8253
 30
0
 70
     0
  0
VERTEX
  8
LAYER1
 10
9.8889
 20
426.8809
 30
0
 70
     0
  0
VERTEX
  8
LAYER1
 10
9.9167
 20
426.9364
 30
0
 70
     0
  0
VERTEX
  8
LAYER1
 10
9.9444
 20
426.992
 30
0
 70
     0
  0
VERTEX
  8
LAYER1
 10
9.9861
 20
427.0475
 30
0
 70
     0
  0
VERTEX
  8
LAYER1
 10
10.0139
 20
427.0892
 30
0
 70
     0
  0
VERTEX
  8
LAYER1
 10
10.0417
 20
427.117
 30
0
 70
     0
  0
VERTEX
  8
LAYER1
 10
10.0694
 20
427.1448
 30
0
 70
     0
  0
VERTEX
  8
LAYER1
 10
10.1528
 20
427.2003
 30
0
 70
     0
  0
VERTEX
  8
LAYER1
 10
10.2083
 20
427.2281
 30
0
 70
     0
  0
SEQEND
  0
ENDBLK
  8
LAYER1
  0
BLOCK
  8
LAYER1
  2
Group29
 70
     0
 10
0
 20
0
 30
0
  0
LINE
  8
LAYER1
  6
CONTINUOUS
 62
     7
 10
10.2083
 20
426.117
 30
0
 11
10.2083
 21
427.2281
 31
0
  0
LINE
  8
LAYER1
  6
CONTINUOUS
 62
     7
 10
11.9583
 20
426.4503
 30
0
 11
11.9583
 21
426.8948
 31
0
  0
LINE
  8
LAYER1
  6
CONTINUOUS
 62
     7
 10
12.0278
 20
426.4503
 30
0
 11
12.0278
 21
426.8948
 31
0
  0
LINE
  8
LAYER1
  6
CONTINUOUS
 62
     7
 10
12.0833
 20
426.4503
 30
0
 11
12.0833
 21
426.8948
 31
0
  0
LINE
  8
LAYER1
  6
CONTINUOUS
 62
     7
 10
12.1528
 20
426.4503
 30
0
 11
12.1528
 21
426.8948
 31
0
  0
LINE
  8
LAYER1
  6
CONTINUOUS
 62
     7
 10
12.2083
 20
426.4503
 30
0
 11
12.2083
 21
426.8948
 31
0
  0
LINE
  8
LAYER1
  6
CONTINUOUS
 62
     7
 10
12.2778
 20
426.4503
 30
0
 11
12.2778
 21
426.8948
 31
0
  0
LINE
  8
LAYER1
  6
CONTINUOUS
 62
     7
 10
12
 20
426.5059
 30
0
 11
12
 21
426.8392
 31
0
  0
LINE
  8
LAYER1
  6
CONTINUOUS
 62
     7
 10
12.0556
 20
426.5059
 30
0
 11
12.0556
 21
426.8392
 31
0
  0
LINE
  8
LAYER1
  6
CONTINUOUS
 62
     7
 10
12.125
 20
426.5059
 30
0
 11
12.125
 21
426.8392
 31
0
  0
LINE
  8
LAYER1
  6
CONTINUOUS
 62
     7
 10
12.1806
 20
426.5059
 30
0
 11
12.1806
 21
426.8392
 31
0
  0
LINE
  8
LAYER1
  6
CONTINUOUS
 62
     7
 10
12.25
 20
426.5059
 30
0
 11
12.25
 21
426.8392
 31
0
  0
LINE
  8
LAYER1
  6
CONTINUOUS
 62
     7
 10
11.4583
 20
426.4503
 30
0
 11
11.4583
 21
426.8948
 31
0
  0
LINE
  8
LAYER1
  6
CONTINUOUS
 62
     7
 10
11.5278
 20
426.4503
 30
0
 11
11.5278
 21
426.8948
 31
0
  0
LINE
  8
LAYER1
  6
CONTINUOUS
 62
     7
 10
11.5833
 20
426.4503
 30
0
 11
11.5833
 21
426.8948
 31
0
  0
LINE
  8
LAYER1
  6
CONTINUOUS
 62
     7
 10
11.6528
 20
426.4503
 30
0
 11
11.6528
 21
426.8948
 31
0
  0
LINE
  8
LAYER1
  6
CONTINUOUS
 62
     7
 10
11.7083
 20
426.4503
 30
0
 11
11.7083
 21
426.8948
 31
0
  0
LINE
  8
LAYER1
  6
CONTINUOUS
 62
     7
 10
11.7778
 20
426.4503
 30
0
 11
11.7778
 21
426.8948
 31
0
  0
LINE
  8
LAYER1
  6
CONTINUOUS
 62
     7
 10
11.8333
 20
426.4503
 30
0
 11
11.8333
 21
426.8948
 31
0
  0
LINE
  8
LAYER1
  6
CONTINUOUS
 62
     7
 10
11.9028
 20
426.4503
 30
0
 11
11.9028
 21
426.8948
 31
0
  0
LINE
  8
LAYER1
  6
CONTINUOUS
 62
     7
 10
11.5
 20
426.5059
 30
0
 11
11.5
 21
426.8392
 31
0
  0
LINE
  8
LAYER1
  6
CONTINUOUS
 62
     7
 10
11.5556
 20
426.5059
 30
0
 11
11.5556
 21
426.8392
 31
0
  0
LINE
  8
LAYER1
  6
CONTINUOUS
 62
     7
 10
11.625
 20
426.5059
 30
0
 11
11.625
 21
426.8392
 31
0
  0
LINE
  8
LAYER1
  6
CONTINUOUS
 62
     7
 10
11.6806
 20
426.5059
 30
0
 11
11.6806
 21
426.8392
 31
0
  0
LINE
  8
LAYER1
  6
CONTINUOUS
 62
     7
 10
11.75
 20
426.5059
 30
0
 11
11.75
 21
426.8392
 31
0
  0
LINE
  8
LAYER1
  6
CONTINUOUS
 62
     7
 10
11.8056
 20
426.5059
 30
0
 11
11.8056
 21
426.8392
 31
0
  0
LINE
  8
LAYER1
  6
CONTINUOUS
 62
     7
 10
11.875
 20
426.5059
 30
0
 11
11.875
 21
426.8392
 31
0
  0
LINE
  8
LAYER1
  6
CONTINUOUS
 62
     7
 10
11.9306
 20
426.5059
 30
0
 11
11.9306
 21
426.8392
 31
0
  0
LINE
  8
LAYER1
  6
CONTINUOUS
 62
     7
 10
10.7083
 20
426.8948
 30
0
 11
10.7083
 21
426.4642
 31
0
  0
LINE
  8
LAYER1
  6
CONTINUOUS
 62
     7
 10
12.9028
 20
426.8948
 30
0
 11
12.9306
 21
426.8392
 31
0
  0
LINE
  8
LAYER1
  6
CONTINUOUS
 62
     7
 10
12.4583
 20
426.4503
 30
0
 11
12.4583
 21
426.8948
 31
0
  0
LINE
  8
LAYER1
  6
CONTINUOUS
 62
     7
 10
12.5278
 20
426.4503
 30
0
 11
12.5278
 21
426.8948
 31
0
  0
LINE
  8
LAYER1
  6
CONTINUOUS
 62
     7
 10
12.5833
 20
426.4503
 30
0
 11
12.5833
 21
426.8948
 31
0
  0
LINE
  8
LAYER1
  6
CONTINUOUS
 62
     7
 10
12.6528
 20
426.4503
 30
0
 11
12.6528
 21
426.8948
 31
0
  0
LINE
  8
LAYER1
  6
CONTINUOUS
 62
     7
 10
12.7083
 20
426.4503
 30
0
 11
12.7083
 21
426.8948
 31
0
  0
LINE
  8
LAYER1
  6
CONTINUOUS
 62
     7
 10
12.5
 20
426.5059
 30
0
 11
12.5
 21
426.8392
 31
0
  0
LINE
  8
LAYER1
  6
CONTINUOUS
 62
     7
 10
12.5556
 20
426.5059
 30
0
 11
12.5556
 21
426.8392
 31
0
  0
LINE
  8
LAYER1
  6
CONTINUOUS
 62
     7
 10
12.625
 20
426.5059
 30
0
 11
12.625
 21
426.8392
 31
0
  0
LINE
  8
LAYER1
  6
CONTINUOUS
 62
     7
 10
12.6806
 20
426.5059
 30
0
 11
12.6806
 21
426.8392
 31
0
  0
LINE
  8
LAYER1
  6
CONTINUOUS
 62
     7
 10
12.3333
 20
426.4503
 30
0
 11
12.3333
 21
426.8948
 31
0
  0
LINE
  8
LAYER1
  6
CONTINUOUS
 62
     7
 10
12.4028
 20
426.4503
 30
0
 11
12.4028
 21
426.8948
 31
0
  0
LINE
  8
LAYER1
  6
CONTINUOUS
 62
     7
 10
12.3056
 20
426.5059
 30
0
 11
12.3056
 21
426.8392
 31
0
  0
LINE
  8
LAYER1
  6
CONTINUOUS
 62
     7
 10
12.375
 20
426.5059
 30
0
 11
12.375
 21
426.8392
 31
0
  0
LINE
  8
LAYER1
  6
CONTINUOUS
 62
     7
 10
12.4306
 20
426.5059
 30
0
 11
12.4306
 21
426.8392
 31
0
  0
LINE
  8
LAYER1
  6
CONTINUOUS
 62
     7
 10
12.4583
 20
426.8948
 30
0
 11
12.4583
 21
426.4503
 31
0
  0
LINE
  8
LAYER1
  6
CONTINUOUS
 62
     7
 10
12.7778
 20
426.4503
 30
0
 11
12.7778
 21
426.8948
 31
0
  0
LINE
  8
LAYER1
  6
CONTINUOUS
 62
     7
 10
12.8333
 20
426.4503
 30
0
 11
12.8333
 21
426.8948
 31
0
  0
LINE
  8
LAYER1
  6
CONTINUOUS
 62
     7
 10
12.75
 20
426.5059
 30
0
 11
12.75
 21
426.8392
 31
0
  0
LINE
  8
LAYER1
  6
CONTINUOUS
 62
     7
 10
12.8056
 20
426.5059
 30
0
 11
12.8056
 21
426.8392
 31
0
  0
LINE
  8
LAYER1
  6
CONTINUOUS
 62
     7
 10
12.875
 20
426.5059
 30
0
 11
12.875
 21
426.8392
 31
0
  0
LINE
  8
LAYER1
  6
CONTINUOUS
 62
     7
 10
12.9306
 20
426.5059
 30
0
 11
12.9306
 21
426.8392
 31
0
  0
LINE
  8
LAYER1
  6
CONTINUOUS
 62
     7
 10
12.9028
 20
426.4503
 30
0
 11
12.9306
 21
426.5059
 31
0
  0
LINE
  8
LAYER1
  6
CONTINUOUS
 62
     7
 10
12.9028
 20
426.8948
 30
0
 11
12.9028
 21
426.4503
 31
0
  0
LINE
  8
LAYER1
  6
CONTINUOUS
 62
     7
 10
12.9028
 20
426.8948
 30
0
 11
10.7083
 21
426.8948
 31
0
  0
ENDBLK
  8
LAYER1
  0
BLOCK
  8
LAYER1
  2
Group30
 70
     0
 10
0
 20
0
 30
0
  0
INSERT
  8
LAYER1
  2
Group28
 10
0
 20
0
 30
0
  0
INSERT
  8
LAYER1
  2
Group29
 10
0
 20
0
 30
0
  0
ENDBLK
  8
LAYER1
  0
BLOCK
  8
LAYER1
  2
Group31
 70
     0
 10
0
 20
0
 30
0
  0
LINE
  8
LAYER1
  6
CONTINUOUS
 62
     7
 10
12.9028
 20
426.4503
 30
0
 11
10.7083
 21
426.4503
 31
0
  0
LINE
  8
LAYER1
  6
CONTINUOUS
 62
     7
 10
1.1806
 20
420.9503
 30
0
 11
1.1806
 21
421.2003
 31
0
  0
LINE
  8
LAYER1
  6
CONTINUOUS
 62
     7
 10
1.25
 20
420.9503
 30
0
 11
1.25
 21
421.2003
 31
0
  0
LINE
  8
LAYER1
  6
CONTINUOUS
 62
     7
 10
1.3056
 20
420.9503
 30
0
 11
1.3056
 21
421.2003
 31
0
  0
LINE
  8
LAYER1
  6
CONTINUOUS
 62
     7
 10
1.375
 20
420.9503
 30
0
 11
1.375
 21
421.2003
 31
0
  0
LINE
  8
LAYER1
  6
CONTINUOUS
 62
     7
 10
1.4306
 20
420.9503
 30
0
 11
1.4306
 21
421.2003
 31
0
  0
LINE
  8
LAYER1
  6
CONTINUOUS
 62
     7
 10
1.5
 20
420.9503
 30
0
 11
1.5
 21
421.2003
 31
0
  0
LINE
  8
LAYER1
  6
CONTINUOUS
 62
     7
 10
1.5556
 20
420.9503
 30
0
 11
1.5556
 21
421.2003
 31
0
  0
LINE
  8
LAYER1
  6
CONTINUOUS
 62
     7
 10
1.625
 20
420.9503
 30
0
 11
1.625
 21
421.2003
 31
0
  0
LINE
  8
LAYER1
  6
CONTINUOUS
 62
     7
 10
1.2222
 20
420.992
 30
0
 11
1.2222
 21
421.1725
 31
0
  0
LINE
  8
LAYER1
  6
CONTINUOUS
 62
     7
 10
1.2778
 20
420.992
 30
0
 11
1.2778
 21
421.1725
 31
0
  0
LINE
  8
LAYER1
  6
CONTINUOUS
 62
     7
 10
1.3472
 20
420.992
 30
0
 11
1.3472
 21
421.1725
 31
0
  0
LINE
  8
LAYER1
  6
CONTINUOUS
 62
     7
 10
1.4028
 20
420.992
 30
0
 11
1.4028
 21
421.1725
 31
0
  0
LINE
  8
LAYER1
  6
CONTINUOUS
 62
     7
 10
1.4722
 20
420.992
 30
0
 11
1.4722
 21
421.1725
 31
0
  0
LINE
  8
LAYER1
  6
CONTINUOUS
 62
     7
 10
1.5278
 20
420.992
 30
0
 11
1.5278
 21
421.1725
 31
0
  0
LINE
  8
LAYER1
  6
CONTINUOUS
 62
     7
 10
1.5972
 20
420.992
 30
0
 11
1.5972
 21
421.1725
 31
0
  0
LINE
  8
LAYER1
  6
CONTINUOUS
 62
     7
 10
1.6528
 20
420.992
 30
0
 11
1.6528
 21
421.1725
 31
0
  0
POLYLINE
  8
LAYER1
  6
CONTINUOUS
 62
     7
 66
     1
 70
     0
 40
0.0039
 41
0.0039
  0
VERTEX
  8
LAYER1
 10
0.875
 20
421.0753
 30
0
 70
     0
  0
VERTEX
  8
LAYER1
 10
0.8889
 20
421.0475
 30
0
 70
     0
  0
VERTEX
  8
LAYER1
 10
0.8889
 20
421.0059
 30
0
 70
     0
  0
VERTEX
  8
LAYER1
 10
0.8889
 20
420.992
 30
0
 70
     0
  0
VERTEX
  8
LAYER1
 10
0.8889
 20
420.9642
 30
0
 70
     0
  0
VERTEX
  8
LAYER1
 10
0.8889
 20
420.9225
 30
0
 70
     0
  0
VERTEX
  8
LAYER1
 10
0.875
 20
420.8948
 30
0
 70
     0
  0
SEQEND
  0
POLYLINE
  8
LAYER1
  6
CONTINUOUS
 62
     7
 66
     1
 70
     0
 40
0.0039
 41
0.0039
  0
VERTEX
  8
LAYER1
 10
0.875
 20
421.2698
 30
0
 70
     0
  0
VERTEX
  8
LAYER1
 10
0.8889
 20
421.242
 30
0
 70
     0
  0
VERTEX
  8
LAYER1
 10
0.8889
 20
421.1864
 30
0
 70
     0
  0
VERTEX
  8
LAYER1
 10
0.8889
 20
421.1725
 30
0
 70
     0
  0
VERTEX
  8
LAYER1
 10
0.8889
 20
421.1448
 30
0
 70
     0
  0
VERTEX
  8
LAYER1
 10
0.8889
 20
421.1031
 30
0
 70
     0
  0
VERTEX
  8
LAYER1
 10
0.875
 20
421.0753
 30
0
 70
     0
  0
SEQEND
  0
LINE
  8
LAYER1
  6
CONTINUOUS
 62
     7
 10
0.7222
 20
421.2698
 30
0
 11
0.7222
 21
420.8948
 31
0
  0
LINE
  8
LAYER1
  6
CONTINUOUS
 62
     7
 10
0.875
 20
421.0753
 30
0
 11
0.7222
 21
421.0753
 31
0
  0
LINE
  8
LAYER1
  6
CONTINUOUS
 62
     7
 10
0.875
 20
421.2698
 30
0
 11
0.7222
 21
421.2698
 31
0
  0
LINE
  8
LAYER1
  6
CONTINUOUS
 62
     7
 10
0.7222
 20
420.8948
 30
0
 11
0.875
 21
420.8948
 31
0
  0
LINE
  8
LAYER1
  6
CONTINUOUS
 62
     7
 10
0.8889
 20
420.9503
 30
0
 11
0.8889
 21
421.2003
 31
0
  0
POLYLINE
  8
LAYER1
  6
CONTINUOUS
 62
     7
 66
     1
 70
     0
 40
0.0039
 41
0.0039
  0
VERTEX
  8
LAYER1
 10
0.7222
 20
420.742
 30
0
 70
     0
  0
VERTEX
  8
LAYER1
 10
0.6944
 20
420.7698
 30
0
 70
     0
  0
VERTEX
  8
LAYER1
 10
0.6528
 20
420.8531
 30
0
 70
     0
  0
VERTEX
  8
LAYER1
 10
0.625
 20
420.9364
 30
0
 70
     0
  0
VERTEX
  8
LAYER1
 10
0.6111
 20
421.0198
 30
0
 70
     0
  0
VERTEX
  8
LAYER1
 10
0.6111
 20
421.0753
 30
0
 70
     0
  0
VERTEX
  8
LAYER1
 10
0.6111
 20
421.117
 30
0
 70
     0
  0
VERTEX
  8
LAYER1
 10
0.625
 20
421.2142
 30
0
 70
     0
  0
VERTEX
  8
LAYER1
 10
0.6528
 20
421.2975
 30
0
 70
     0
  0
VERTEX
  8
LAYER1
 10
0.6944
 20
421.3809
 30
0
 70
     0
  0
VERTEX
  8
LAYER1
 10
0.7222
 20
421.4225
 30
0
 70
     0
  0
SEQEND
  0
LINE
  8
LAYER1
  6
CONTINUOUS
 62
     7
 10
0.7222
 20
420.742
 30
0
 11
0.7222
 21
421.4225
 31
0
  0
LINE
  8
LAYER1
  6
CONTINUOUS
 62
     7
 10
1.625
 20
421.2003
 30
0
 11
1.6528
 21
421.1725
 31
0
  0
LINE
  8
LAYER1
  6
CONTINUOUS
 62
     7
 10
1.625
 20
420.9503
 30
0
 11
1.6528
 21
420.992
 31
0
  0
LINE
  8
LAYER1
  6
CONTINUOUS
 62
     7
 10
0.8889
 20
421.2003
 30
0
 11
1.625
 21
421.2003
 31
0
  0
ENDBLK
  8
LAYER1
  0
BLOCK
  8
LAYER1
  2
Group32
 70
     0
 10
0
 20
0
 30
0
  0
LINE
  8
LAYER1
  6
CONTINUOUS
 62
     7
 10
1.625
 20
420.9503
 30
0
 11
0.8889
 21
420.9503
 31
0
  0
LINE
  8
LAYER1
  6
CONTINUOUS
 62
     7
 10
1.1667
 20
422.9087
 30
0
 11
1.1667
 21
423.1587
 31
0
  0
LINE
  8
LAYER1
  6
CONTINUOUS
 62
     7
 10
1.2222
 20
422.9087
 30
0
 11
1.2222
 21
423.1587
 31
0
  0
LINE
  8
LAYER1
  6
CONTINUOUS
 62
     7
 10
1.2917
 20
422.9087
 30
0
 11
1.2917
 21
423.1587
 31
0
  0
LINE
  8
LAYER1
  6
CONTINUOUS
 62
     7
 10
1.3472
 20
422.9087
 30
0
 11
1.3472
 21
423.1587
 31
0
  0
LINE
  8
LAYER1
  6
CONTINUOUS
 62
     7
 10
1.4167
 20
422.9087
 30
0
 11
1.4167
 21
423.1587
 31
0
  0
LINE
  8
LAYER1
  6
CONTINUOUS
 62
     7
 10
1.4722
 20
422.9087
 30
0
 11
1.4722
 21
423.1587
 31
0
  0
LINE
  8
LAYER1
  6
CONTINUOUS
 62
     7
 10
1.5417
 20
422.9087
 30
0
 11
1.5417
 21
423.1587
 31
0
  0
LINE
  8
LAYER1
  6
CONTINUOUS
 62
     7
 10
1.5972
 20
422.9087
 30
0
 11
1.5972
 21
423.1587
 31
0
  0
LINE
  8
LAYER1
  6
CONTINUOUS
 62
     7
 10
1.1944
 20
422.9364
 30
0
 11
1.1944
 21
423.117
 31
0
  0
LINE
  8
LAYER1
  6
CONTINUOUS
 62
     7
 10
1.25
 20
422.9364
 30
0
 11
1.25
 21
423.117
 31
0
  0
LINE
  8
LAYER1
  6
CONTINUOUS
 62
     7
 10
1.3194
 20
422.9364
 30
0
 11
1.3194
 21
423.117
 31
0
  0
LINE
  8
LAYER1
  6
CONTINUOUS
 62
     7
 10
1.375
 20
422.9364
 30
0
 11
1.375
 21
423.117
 31
0
  0
LINE
  8
LAYER1
  6
CONTINUOUS
 62
     7
 10
1.4444
 20
422.9364
 30
0
 11
1.4444
 21
423.117
 31
0
  0
LINE
  8
LAYER1
  6
CONTINUOUS
 62
     7
 10
1.5
 20
422.9364
 30
0
 11
1.5
 21
423.117
 31
0
  0
LINE
  8
LAYER1
  6
CONTINUOUS
 62
     7
 10
1.5694
 20
422.9364
 30
0
 11
1.5694
 21
423.117
 31
0
  0
LINE
  8
LAYER1
  6
CONTINUOUS
 62
     7
 10
1.625
 20
422.9364
 30
0
 11
1.625
 21
423.117
 31
0
  0
POLYLINE
  8
LAYER1
  6
CONTINUOUS
 62
     7
 66
     1
 70
     0
 40
0.0039
 41
0.0039
  0
VERTEX
  8
LAYER1
 10
0.8472
 20
423.0337
 30
0
 70
     0
  0
VERTEX
  8
LAYER1
 10
0.8611
 20
423.0059
 30
0
 70
     0
  0
VERTEX
  8
LAYER1
 10
0.875
 20
422.9503
 30
0
 70
     0
  0
VERTEX
  8
LAYER1
 10
0.875
 20
422.9364
 30
0
 70
     0
  0
VERTEX
  8
LAYER1
 10
0.875
 20
422.9087
 30
0
 70
     0
  0
VERTEX
  8
LAYER1
 10
0.8611
 20
422.8531
 30
0
 70
     0
  0
VERTEX
  8
LAYER1
 10
0.8472
 20
422.8392
 30
0
 70
     0
  0
SEQEND
  0
POLYLINE
  8
LAYER1
  6
CONTINUOUS
 62
     7
 66
     1
 70
     0
 40
0.0039
 41
0.0039
  0
VERTEX
  8
LAYER1
 10
0.8472
 20
423.2142
 30
0
 70
     0
  0
VERTEX
  8
LAYER1
 10
0.8611
 20
423.1864
 30
0
 70
     0
  0
VERTEX
  8
LAYER1
 10
0.875
 20
423.1448
 30
0
 70
     0
  0
VERTEX
  8
LAYER1
 10
0.875
 20
423.117
 30
0
 70
     0
  0
VERTEX
  8
LAYER1
 10
0.875
 20
423.0892
 30
0
 70
     0
  0
VERTEX
  8
LAYER1
 10
0.8611
 20
423.0475
 30
0
 70
     0
  0
VERTEX
  8
LAYER1
 10
0.8472
 20
423.0337
 30
0
 70
     0
  0
SEQEND
  0
LINE
  8
LAYER1
  6
CONTINUOUS
 62
     7
 10
0.6944
 20
423.2142
 30
0
 11
0.6944
 21
422.8392
 31
0
  0
LINE
  8
LAYER1
  6
CONTINUOUS
 62
     7
 10
0.8472
 20
423.0337
 30
0
 11
0.6944
 21
423.0337
 31
0
  0
LINE
  8
LAYER1
  6
CONTINUOUS
 62
     7
 10
0.8472
 20
423.2142
 30
0
 11
0.6944
 21
423.2142
 31
0
  0
LINE
  8
LAYER1
  6
CONTINUOUS
 62
     7
 10
0.6944
 20
422.8392
 30
0
 11
0.8472
 21
422.8392
 31
0
  0
LINE
  8
LAYER1
  6
CONTINUOUS
 62
     7
 10
0.875
 20
422.9087
 30
0
 11
0.875
 21
423.1587
 31
0
  0
LINE
  8
LAYER1
  6
CONTINUOUS
 62
     7
 10
0.6944
 20
422.7837
 30
0
 11
0.6944
 21
423.2837
 31
0
  0
POLYLINE
  8
LAYER1
  6
CONTINUOUS
 62
     7
 66
     1
 70
     0
 40
0.0039
 41
0.0039
  0
VERTEX
  8
LAYER1
 10
0.6944
 20
422.7837
 30
0
 70
     0
  0
VERTEX
  8
LAYER1
 10
0.6806
 20
422.7837
 30
0
 70
     0
  0
VERTEX
  8
LAYER1
 10
0.6528
 20
422.8114
 30
0
 70
     0
  0
VERTEX
  8
LAYER1
 10
0.625
 20
422.8392
 30
0
 70
     0
  0
VERTEX
  8
LAYER1
 10
0.6111
 20
422.8531
 30
0
 70
     0
  0
VERTEX
  8
LAYER1
 10
0.5694
 20
422.9087
 30
0
 70
     0
  0
VERTEX
  8
LAYER1
 10
0.5556
 20
422.9503
 30
0
 70
     0
  0
VERTEX
  8
LAYER1
 10
0.5417
 20
423.0059
 30
0
 70
     0
  0
VERTEX
  8
LAYER1
 10
0.5417
 20
423.0337
 30
0
 70
     0
  0
VERTEX
  8
LAYER1
 10
0.5417
 20
423.0614
 30
0
 70
     0
  0
VERTEX
  8
LAYER1
 10
0.5556
 20
423.117
 30
0
 70
     0
  0
VERTEX
  8
LAYER1
 10
0.5694
 20
423.1587
 30
0
 70
     0
  0
VERTEX
  8
LAYER1
 10
0.6111
 20
423.2142
 30
0
 70
     0
  0
VERTEX
  8
LAYER1
 10
0.625
 20
423.2281
 30
0
 70
     0
  0
VERTEX
  8
LAYER1
 10
0.6528
 20
423.242
 30
0
 70
     0
  0
VERTEX
  8
LAYER1
 10
0.6806
 20
423.2698
 30
0
 70
     0
  0
VERTEX
  8
LAYER1
 10
0.6944
 20
423.2837
 30
0
 70
     0
  0
SEQEND
  0
LINE
  8
LAYER1
  6
CONTINUOUS
 62
     7
 10
1.5972
 20
423.1587
 30
0
 11
1.625
 21
423.117
 31
0
  0
LINE
  8
LAYER1
  6
CONTINUOUS
 62
     7
 10
1.5972
 20
422.9087
 30
0
 11
1.625
 21
422.9364
 31
0
  0
LINE
  8
LAYER1
  6
CONTINUOUS
 62
     7
 10
0.875
 20
423.1587
 30
0
 11
1.5972
 21
423.1587
 31
0
  0
ENDBLK
  8
LAYER1
  0
BLOCK
  8
LAYER1
  2
Group33
 70
     0
 10
0
 20
0
 30
0
  0
LINE
  8
LAYER1
  6
CONTINUOUS
 62
     7
 10
2.7083
 20
422.7698
 30
0
 11
2.7083
 21
423.2559
 31
0
  0
POLYLINE
  8
LAYER1
  6
CONTINUOUS
 62
     7
 66
     1
 70
     0
 40
0.0039
 41
0.0039
  0
VERTEX
  8
LAYER1
 10
2.7083
 20
422.7698
 30
0
 70
     0
  0
VERTEX
  8
LAYER1
 10
2.6944
 20
422.7698
 30
0
 70
     0
  0
VERTEX
  8
LAYER1
 10
2.6528
 20
422.7975
 30
0
 70
     0
  0
VERTEX
  8
LAYER1
 10
2.625
 20
422.8114
 30
0
 70
     0
  0
VERTEX
  8
LAYER1
 10
2.6111
 20
422.8253
 30
0
 70
     0
  0
VERTEX
  8
LAYER1
 10
2.5833
 20
422.867
 30
0
 70
     0
  0
VERTEX
  8
LAYER1
 10
2.5694
 20
422.9225
 30
0
 70
     0
  0
VERTEX
  8
LAYER1
 10
2.5556
 20
422.9781
 30
0
 70
     0
  0
VERTEX
  8
LAYER1
 10
2.5556
 20
423.0059
 30
0
 70
     0
  0
VERTEX
  8
LAYER1
 10
2.5556
 20
423.0337
 30
0
 70
     0
  0
VERTEX
  8
LAYER1
 10
2.5694
 20
423.1031
 30
0
 70
     0
  0
VERTEX
  8
LAYER1
 10
2.5833
 20
423.1448
 30
0
 70
     0
  0
VERTEX
  8
LAYER1
 10
2.6111
 20
423.1864
 30
0
 70
     0
  0
VERTEX
  8
LAYER1
 10
2.625
 20
423.2003
 30
0
 70
     0
  0
VERTEX
  8
LAYER1
 10
2.6389
 20
423.2142
 30
0
 70
     0
  0
VERTEX
  8
LAYER1
 10
2.6806
 20
423.242
 30
0
 70
     0
  0
VERTEX
  8
LAYER1
 10
2.7083
 20
423.2559
 30
0
 70
     0
  0
SEQEND
  0
ENDBLK
  8
LAYER1
  0
BLOCK
  8
LAYER1
  2
Group34
 70
     0
 10
0
 20
0
 30
0
  0
LINE
  8
LAYER1
  6
CONTINUOUS
 62
     7
 10
1.5972
 20
422.9087
 30
0
 11
0.875
 21
422.9087
 31
0
  0
LINE
  8
LAYER1
  6
CONTINUOUS
 62
     7
 10
3
 20
422.8809
 30
0
 11
3
 21
423.1309
 31
0
  0
LINE
  8
LAYER1
  6
CONTINUOUS
 62
     7
 10
3.0556
 20
422.8809
 30
0
 11
3.0556
 21
423.1309
 31
0
  0
LINE
  8
LAYER1
  6
CONTINUOUS
 62
     7
 10
3.125
 20
422.8809
 30
0
 11
3.125
 21
423.1309
 31
0
  0
LINE
  8
LAYER1
  6
CONTINUOUS
 62
     7
 10
3.1806
 20
422.8809
 30
0
 11
3.1806
 21
423.1309
 31
0
  0
LINE
  8
LAYER1
  6
CONTINUOUS
 62
     7
 10
3.25
 20
422.8809
 30
0
 11
3.25
 21
423.1309
 31
0
  0
LINE
  8
LAYER1
  6
CONTINUOUS
 62
     7
 10
3.3056
 20
422.8809
 30
0
 11
3.3056
 21
423.1309
 31
0
  0
LINE
  8
LAYER1
  6
CONTINUOUS
 62
     7
 10
3.375
 20
422.8809
 30
0
 11
3.375
 21
423.1309
 31
0
  0
LINE
  8
LAYER1
  6
CONTINUOUS
 62
     7
 10
3.4306
 20
422.8809
 30
0
 11
3.4306
 21
423.1309
 31
0
  0
LINE
  8
LAYER1
  6
CONTINUOUS
 62
     7
 10
3.0278
 20
422.9225
 30
0
 11
3.0278
 21
423.1031
 31
0
  0
LINE
  8
LAYER1
  6
CONTINUOUS
 62
     7
 10
3.0972
 20
422.9225
 30
0
 11
3.0972
 21
423.1031
 31
0
  0
LINE
  8
LAYER1
  6
CONTINUOUS
 62
     7
 10
3.1528
 20
422.9225
 30
0
 11
3.1528
 21
423.1031
 31
0
  0
LINE
  8
LAYER1
  6
CONTINUOUS
 62
     7
 10
3.2222
 20
422.9225
 30
0
 11
3.2222
 21
423.1031
 31
0
  0
LINE
  8
LAYER1
  6
CONTINUOUS
 62
     7
 10
3.2778
 20
422.9225
 30
0
 11
3.2778
 21
423.1031
 31
0
  0
LINE
  8
LAYER1
  6
CONTINUOUS
 62
     7
 10
3.3472
 20
422.9225
 30
0
 11
3.3472
 21
423.1031
 31
0
  0
LINE
  8
LAYER1
  6
CONTINUOUS
 62
     7
 10
3.4028
 20
422.9225
 30
0
 11
3.4028
 21
423.1031
 31
0
  0
LINE
  8
LAYER1
  6
CONTINUOUS
 62
     7
 10
3.4722
 20
422.9225
 30
0
 11
3.4722
 21
423.1031
 31
0
  0
INSERT
  8
LAYER1
  2
Group33
 10
0
 20
0
 30
0
  0
LINE
  8
LAYER1
  6
CONTINUOUS
 62
     7
 10
2.7083
 20
422.8114
 30
0
 11
2.7083
 21
423.2142
 31
0
  0
LINE
  8
LAYER1
  6
CONTINUOUS
 62
     7
 10
2.7917
 20
423.1309
 30
0
 11
2.7083
 21
423.2142
 31
0
  0
LINE
  8
LAYER1
  6
CONTINUOUS
 62
     7
 10
2.7917
 20
423.1309
 30
0
 11
2.7083
 21
423.1031
 31
0
  0
LINE
  8
LAYER1
  6
CONTINUOUS
 62
     7
 10
2.7917
 20
422.8809
 30
0
 11
2.7083
 21
422.8114
 31
0
  0
LINE
  8
LAYER1
  6
CONTINUOUS
 62
     7
 10
2.7917
 20
422.8809
 30
0
 11
2.7083
 21
422.9225
 31
0
  0
LINE
  8
LAYER1
  6
CONTINUOUS
 62
     7
 10
3.4306
 20
423.1309
 30
0
 11
3.4722
 21
423.1031
 31
0
  0
LINE
  8
LAYER1
  6
CONTINUOUS
 62
     7
 10
3.4306
 20
422.8809
 30
0
 11
3.4722
 21
422.9225
 31
0
  0
LINE
  8
LAYER1
  6
CONTINUOUS
 62
     7
 10
2.7917
 20
423.1309
 30
0
 11
3.4306
 21
423.1309
 31
0
  0
ENDBLK
  8
LAYER1
  0
BLOCK
  8
LAYER1
  2
Group35
 70
     0
 10
0
 20
0
 30
0
  0
LINE
  8
LAYER1
  6
CONTINUOUS
 62
     7
 10
3.4306
 20
422.8809
 30
0
 11
2.7917
 21
422.8809
 31
0
  0
LINE
  8
LAYER1
  6
CONTINUOUS
 62
     7
 10
1.7917
 20
419.4642
 30
0
 11
1.7917
 21
419.2837
 31
0
  0
LINE
  8
LAYER1
  6
CONTINUOUS
 62
     7
 10
1.7222
 20
419.4642
 30
0
 11
1.7222
 21
419.2837
 31
0
  0
LINE
  8
LAYER1
  6
CONTINUOUS
 62
     7
 10
1.6667
 20
419.4642
 30
0
 11
1.6667
 21
419.2837
 31
0
  0
LINE
  8
LAYER1
  6
CONTINUOUS
 62
     7
 10
1.5972
 20
419.4642
 30
0
 11
1.5972
 21
419.2837
 31
0
  0
LINE
  8
LAYER1
  6
CONTINUOUS
 62
     7
 10
1.5417
 20
419.4642
 30
0
 11
1.5417
 21
419.2837
 31
0
  0
LINE
  8
LAYER1
  6
CONTINUOUS
 62
     7
 10
1.4722
 20
419.4642
 30
0
 11
1.4722
 21
419.2837
 31
0
  0
LINE
  8
LAYER1
  6
CONTINUOUS
 62
     7
 10
1.4167
 20
419.4642
 30
0
 11
1.4167
 21
419.2837
 31
0
  0
LINE
  8
LAYER1
  6
CONTINUOUS
 62
     7
 10
1.3472
 20
419.4642
 30
0
 11
1.3472
 21
419.2837
 31
0
  0
LINE
  8
LAYER1
  6
CONTINUOUS
 62
     7
 10
1.2917
 20
419.4642
 30
0
 11
1.2917
 21
419.2837
 31
0
  0
LINE
  8
LAYER1
  6
CONTINUOUS
 62
     7
 10
1.7639
 20
419.4364
 30
0
 11
1.7639
 21
419.2975
 31
0
  0
LINE
  8
LAYER1
  6
CONTINUOUS
 62
     7
 10
1.6944
 20
419.4364
 30
0
 11
1.6944
 21
419.2975
 31
0
  0
LINE
  8
LAYER1
  6
CONTINUOUS
 62
     7
 10
1.6389
 20
419.4364
 30
0
 11
1.6389
 21
419.2975
 31
0
  0
LINE
  8
LAYER1
  6
CONTINUOUS
 62
     7
 10
1.5694
 20
419.4364
 30
0
 11
1.5694
 21
419.2975
 31
0
  0
LINE
  8
LAYER1
  6
CONTINUOUS
 62
     7
 10
1.5139
 20
419.4364
 30
0
 11
1.5139
 21
419.2975
 31
0
  0
LINE
  8
LAYER1
  6
CONTINUOUS
 62
     7
 10
1.4444
 20
419.4364
 30
0
 11
1.4444
 21
419.2975
 31
0
  0
LINE
  8
LAYER1
  6
CONTINUOUS
 62
     7
 10
1.3889
 20
419.4364
 30
0
 11
1.3889
 21
419.2975
 31
0
  0
LINE
  8
LAYER1
  6
CONTINUOUS
 62
     7
 10
1.3194
 20
419.4364
 30
0
 11
1.3194
 21
419.2975
 31
0
  0
LINE
  8
LAYER1
  6
CONTINUOUS
 62
     7
 10
1.2639
 20
419.4364
 30
0
 11
1.2639
 21
419.2975
 31
0
  0
POLYLINE
  8
LAYER1
  6
CONTINUOUS
 62
     7
 66
     1
 70
     0
 40
0.0039
 41
0.0039
  0
VERTEX
  8
LAYER1
 10
2.1389
 20
419.4642
 30
0
 70
     0
  0
VERTEX
  8
LAYER1
 10
2.1667
 20
419.4364
 30
0
 70
     0
  0
VERTEX
  8
LAYER1
 10
2.1944
 20
419.4364
 30
0
 70
     0
  0
VERTEX
  8
LAYER1
 10
2.2222
 20
419.4642
 30
0
 70
     0
  0
VERTEX
  8
LAYER1
 10
2.2639
 20
419.4364
 30
0
 70
     0
  0
VERTEX
  8
LAYER1
 10
2.2917
 20
419.4364
 30
0
 70
     0
  0
VERTEX
  8
LAYER1
 10
2.3194
 20
419.4642
 30
0
 70
     0
  0
VERTEX
  8
LAYER1
 10
2.3472
 20
419.4364
 30
0
 70
     0
  0
VERTEX
  8
LAYER1
 10
2.3889
 20
419.4364
 30
0
 70
     0
  0
VERTEX
  8
LAYER1
 10
2.4167
 20
419.4642
 30
0
 70
     0
  0
VERTEX
  8
LAYER1
 10
2.4444
 20
419.4364
 30
0
 70
     0
  0
VERTEX
  8
LAYER1
 10
2.4722
 20
419.4364
 30
0
 70
     0
  0
VERTEX
  8
LAYER1
 10
2.5139
 20
419.4642
 30
0
 70
     0
  0
VERTEX
  8
LAYER1
 10
2.5417
 20
419.4364
 30
0
 70
     0
  0
VERTEX
  8
LAYER1
 10
2.5694
 20
419.4364
 30
0
 70
     0
  0
VERTEX
  8
LAYER1
 10
2.5972
 20
419.4642
 30
0
 70
     0
  0
VERTEX
  8
LAYER1
 10
2.6389
 20
419.4364
 30
0
 70
     0
  0
VERTEX
  8
LAYER1
 10
2.6667
 20
419.4364
 30
0
 70
     0
  0
VERTEX
  8
LAYER1
 10
2.6944
 20
419.4642
 30
0
 70
     0
  0
VERTEX
  8
LAYER1
 10
2.7222
 20
419.4364
 30
0
 70
     0
  0
VERTEX
  8
LAYER1
 10
2.7639
 20
419.4364
 30
0
 70
     0
  0
VERTEX
  8
LAYER1
 10
2.7917
 20
419.4642
 30
0
 70
     0
  0
VERTEX
  8
LAYER1
 10
2.8194
 20
419.4225
 30
0
 70
     0
  0
VERTEX
  8
LAYER1
 10
2.8472
 20
419.4225
 30
0
 70
     0
  0
VERTEX
  8
LAYER1
 10
2.8889
 20
419.4503
 30
0
 70
     0
  0
VERTEX
  8
LAYER1
 10
2.9167
 20
419.4087
 30
0
 70
     0
  0
VERTEX
  8
LAYER1
 10
2.9444
 20
419.4087
 30
0
 70
     0
  0
VERTEX
  8
LAYER1
 10
2.9722
 20
419.4225
 30
0
 70
     0
  0
VERTEX
  8
LAYER1
 10
3.0139
 20
419.3948
 30
0
 70
     0
  0
SEQEND
  0
LINE
  8
LAYER1
  6
CONTINUOUS
 62
     7
 10
2.1389
 20
419.4642
 30
0
 11
2.1667
 21
419.2837
 31
0
  0
POLYLINE
  8
LAYER1
  6
CONTINUOUS
 62
     7
 66
     1
 70
     0
 40
0.0039
 41
0.0039
  0
VERTEX
  8
LAYER1
 10
2.1944
 20
419.3114
 30
0
 70
     0
  0
VERTEX
  8
LAYER1
 10
2.2222
 20
419.3114
 30
0
 70
     0
  0
VERTEX
  8
LAYER1
 10
2.2639
 20
419.2837
 30
0
 70
     0
  0
VERTEX
  8
LAYER1
 10
2.2917
 20
419.3114
 30
0
 70
     0
  0
VERTEX
  8
LAYER1
 10
2.3194
 20
419.3114
 30
0
 70
     0
  0
VERTEX
  8
LAYER1
 10
2.3472
 20
419.2837
 30
0
 70
     0
  0
VERTEX
  8
LAYER1
 10
2.3889
 20
419.3114
 30
0
 70
     0
  0
VERTEX
  8
LAYER1
 10
2.4167
 20
419.3114
 30
0
 70
     0
  0
VERTEX
  8
LAYER1
 10
2.4444
 20
419.2837
 30
0
 70
     0
  0
VERTEX
  8
LAYER1
 10
2.4722
 20
419.3114
 30
0
 70
     0
  0
VERTEX
  8
LAYER1
 10
2.5139
 20
419.3114
 30
0
 70
     0
  0
VERTEX
  8
LAYER1
 10
2.5417
 20
419.2837
 30
0
 70
     0
  0
VERTEX
  8
LAYER1
 10
2.5694
 20
419.3114
 30
0
 70
     0
  0
VERTEX
  8
LAYER1
 10
2.5972
 20
419.3114
 30
0
 70
     0
  0
VERTEX
  8
LAYER1
 10
2.6389
 20
419.2837
 30
0
 70
     0
  0
VERTEX
  8
LAYER1
 10
2.6667
 20
419.3114
 30
0
 70
     0
  0
VERTEX
  8
LAYER1
 10
2.6944
 20
419.3114
 30
0
 70
     0
  0
VERTEX
  8
LAYER1
 10
2.7222
 20
419.2837
 30
0
 70
     0
  0
VERTEX
  8
LAYER1
 10
2.7639
 20
419.3114
 30
0
 70
     0
  0
VERTEX
  8
LAYER1
 10
2.7917
 20
419.3114
 30
0
 70
     0
  0
VERTEX
  8
LAYER1
 10
2.8194
 20
419.2837
 30
0
 70
     0
  0
VERTEX
  8
LAYER1
 10
2.8472
 20
419.3253
 30
0
 70
     0
  0
VERTEX
  8
LAYER1
 10
2.8889
 20
419.3253
 30
0
 70
     0
  0
VERTEX
  8
LAYER1
 10
2.9167
 20
419.2975
 30
0
 70
     0
  0
VERTEX
  8
LAYER1
 10
2.9444
 20
419.3392
 30
0
 70
     0
  0
VERTEX
  8
LAYER1
 10
2.9722
 20
419.3531
 30
0
 70
     0
  0
VERTEX
  8
LAYER1
 10
3.0139
 20
419.3253
 30
0
 70
     0
  0
VERTEX
  8
LAYER1
 10
3.0417
 20
419.3531
 30
0
 70
     0
  0
SEQEND
  0
LINE
  8
LAYER1
  6
CONTINUOUS
 62
     7
 10
2.1667
 20
419.4364
 30
0
 11
2.1944
 21
419.3114
 31
0
  0
LINE
  8
LAYER1
  6
CONTINUOUS
 62
     7
 10
2.1944
 20
419.4364
 30
0
 11
2.2222
 21
419.3114
 31
0
  0
LINE
  8
LAYER1
  6
CONTINUOUS
 62
     7
 10
2.2222
 20
419.4642
 30
0
 11
2.2639
 21
419.2837
 31
0
  0
LINE
  8
LAYER1
  6
CONTINUOUS
 62
     7
 10
2.2639
 20
419.4364
 30
0
 11
2.2917
 21
419.3114
 31
0
  0
LINE
  8
LAYER1
  6
CONTINUOUS
 62
     7
 10
2.2917
 20
419.4364
 30
0
 11
2.3194
 21
419.3114
 31
0
  0
LINE
  8
LAYER1
  6
CONTINUOUS
 62
     7
 10
2.3194
 20
419.4642
 30
0
 11
2.3472
 21
419.2837
 31
0
  0
LINE
  8
LAYER1
  6
CONTINUOUS
 62
     7
 10
2.3472
 20
419.4364
 30
0
 11
2.3889
 21
419.3114
 31
0
  0
LINE
  8
LAYER1
  6
CONTINUOUS
 62
     7
 10
2.3889
 20
419.4364
 30
0
 11
2.4167
 21
419.3114
 31
0
  0
LINE
  8
LAYER1
  6
CONTINUOUS
 62
     7
 10
2.4444
 20
419.4364
 30
0
 11
2.4722
 21
419.3114
 31
0
  0
LINE
  8
LAYER1
  6
CONTINUOUS
 62
     7
 10
2.4167
 20
419.4642
 30
0
 11
2.4444
 21
419.2837
 31
0
  0
LINE
  8
LAYER1
  6
CONTINUOUS
 62
     7
 10
2.1667
 20
419.2837
 30
0
 11
2.1944
 21
419.3114
 31
0
  0
LINE
  8
LAYER1
  6
CONTINUOUS
 62
     7
 10
2.4722
 20
419.4364
 30
0
 11
2.5139
 21
419.3114
 31
0
  0
LINE
  8
LAYER1
  6
CONTINUOUS
 62
     7
 10
2.5139
 20
419.4642
 30
0
 11
2.5417
 21
419.2837
 31
0
  0
LINE
  8
LAYER1
  6
CONTINUOUS
 62
     7
 10
2.5417
 20
419.4364
 30
0
 11
2.5694
 21
419.3114
 31
0
  0
LINE
  8
LAYER1
  6
CONTINUOUS
 62
     7
 10
2.5694
 20
419.4364
 30
0
 11
2.5972
 21
419.3114
 31
0
  0
LINE
  8
LAYER1
  6
CONTINUOUS
 62
     7
 10
2.5972
 20
419.4642
 30
0
 11
2.6389
 21
419.2837
 31
0
  0
LINE
  8
LAYER1
  6
CONTINUOUS
 62
     7
 10
2.6389
 20
419.4364
 30
0
 11
2.6667
 21
419.3114
 31
0
  0
LINE
  8
LAYER1
  6
CONTINUOUS
 62
     7
 10
2.6667
 20
419.4364
 30
0
 11
2.6944
 21
419.3114
 31
0
  0
LINE
  8
LAYER1
  6
CONTINUOUS
 62
     7
 10
2.6944
 20
419.4642
 30
0
 11
2.7222
 21
419.2837
 31
0
  0
LINE
  8
LAYER1
  6
CONTINUOUS
 62
     7
 10
2.7222
 20
419.4364
 30
0
 11
2.7639
 21
419.3114
 31
0
  0
LINE
  8
LAYER1
  6
CONTINUOUS
 62
     7
 10
2.7639
 20
419.4364
 30
0
 11
2.7917
 21
419.3114
 31
0
  0
LINE
  8
LAYER1
  6
CONTINUOUS
 62
     7
 10
2.7917
 20
419.4642
 30
0
 11
2.8194
 21
419.2837
 31
0
  0
LINE
  8
LAYER1
  6
CONTINUOUS
 62
     7
 10
2.8194
 20
419.4225
 30
0
 11
2.8472
 21
419.3253
 31
0
  0
LINE
  8
LAYER1
  6
CONTINUOUS
 62
     7
 10
2.8472
 20
419.4225
 30
0
 11
2.8889
 21
419.3253
 31
0
  0
LINE
  8
LAYER1
  6
CONTINUOUS
 62
     7
 10
2.8889
 20
419.4503
 30
0
 11
2.9167
 21
419.2975
 31
0
  0
LINE
  8
LAYER1
  6
CONTINUOUS
 62
     7
 10
3.0139
 20
419.3948
 30
0
 11
3.1111
 21
419.367
 31
0
  0
LINE
  8
LAYER1
  6
CONTINUOUS
 62
     7
 10
3.0417
 20
419.3531
 30
0
 11
3.1111
 21
419.367
 31
0
  0
LINE
  8
LAYER1
  6
CONTINUOUS
 62
     7
 10
2.9167
 20
419.4087
 30
0
 11
2.9444
 21
419.3392
 31
0
  0
LINE
  8
LAYER1
  6
CONTINUOUS
 62
     7
 10
2.9444
 20
419.4087
 30
0
 11
2.9722
 21
419.3531
 31
0
  0
LINE
  8
LAYER1
  6
CONTINUOUS
 62
     7
 10
2.9722
 20
419.4225
 30
0
 11
3.0139
 21
419.3253
 31
0
  0
LINE
  8
LAYER1
  6
CONTINUOUS
 62
     7
 10
1.2639
 20
419.4364
 30
0
 11
1.2917
 21
419.4642
 31
0
  0
LINE
  8
LAYER1
  6
CONTINUOUS
 62
     7
 10
1.2639
 20
419.2975
 30
0
 11
1.2917
 21
419.2837
 31
0
  0
LINE
  8
LAYER1
  6
CONTINUOUS
 62
     7
 10
1.2917
 20
419.4642
 30
0
 11
2.1389
 21
419.4642
 31
0
  0
ENDBLK
  8
LAYER1
  0
BLOCK
  8
LAYER1
  2
Group36
 70
     0
 10
0
 20
0
 30
0
  0
POLYLINE
  8
LAYER1
  6
CONTINUOUS
 62
     7
 66
     1
 70
     0
 40
0.0039
 41
0.0039
  0
VERTEX
  8
LAYER1
 10
1.4444
 20
419.2698
 30
0
 70
     0
  0
VERTEX
  8
LAYER1
 10
1.4306
 20
419.2837
 30
0
 70
     0
  0
VERTEX
  8
LAYER1
 10
1.4167
 20
419.3392
 30
0
 70
     0
  0
VERTEX
  8
LAYER1
 10
1.4167
 20
419.367
 30
0
 70
     0
  0
VERTEX
  8
LAYER1
 10
1.4167
 20
419.3948
 30
0
 70
     0
  0
VERTEX
  8
LAYER1
 10
1.4306
 20
419.4503
 30
0
 70
     0
  0
VERTEX
  8
LAYER1
 10
1.4444
 20
419.4781
 30
0
 70
     0
  0
SEQEND
  0
POLYLINE
  8
LAYER1
  6
CONTINUOUS
 62
     7
 66
     1
 70
     0
 40
0.0039
 41
0.0039
  0
VERTEX
  8
LAYER1
 10
1.4306
 20
419.4781
 30
0
 70
     0
  0
VERTEX
  8
LAYER1
 10
1.4306
 20
419.4781
 30
0
 70
     0
  0
VERTEX
  8
LAYER1
 10
1.4306
 20
419.492
 30
0
 70
     0
  0
VERTEX
  8
LAYER1
 10
1.4167
 20
419.5198
 30
0
 70
     0
  0
VERTEX
  8
LAYER1
 10
1.4167
 20
419.5337
 30
0
 70
     0
  0
VERTEX
  8
LAYER1
 10
1.4167
 20
419.5475
 30
0
 70
     0
  0
VERTEX
  8
LAYER1
 10
1.4306
 20
419.5753
 30
0
 70
     0
  0
VERTEX
  8
LAYER1
 10
1.4306
 20
419.5892
 30
0
 70
     0
  0
VERTEX
  8
LAYER1
 10
1.4306
 20
419.5892
 30
0
 70
     0
  0
SEQEND
  0
POLYLINE
  8
LAYER1
  6
CONTINUOUS
 62
     7
 66
     1
 70
     0
 40
0.0039
 41
0.0039
  0
VERTEX
  8
LAYER1
 10
1.4306
 20
419.1587
 30
0
 70
     0
  0
VERTEX
  8
LAYER1
 10
1.4306
 20
419.1587
 30
0
 70
     0
  0
VERTEX
  8
LAYER1
 10
1.4306
 20
419.1725
 30
0
 70
     0
  0
VERTEX
  8
LAYER1
 10
1.4167
 20
419.2003
 30
0
 70
     0
  0
VERTEX
  8
LAYER1
 10
1.4167
 20
419.2142
 30
0
 70
     0
  0
VERTEX
  8
LAYER1
 10
1.4167
 20
419.2281
 30
0
 70
     0
  0
VERTEX
  8
LAYER1
 10
1.4306
 20
419.2559
 30
0
 70
     0
  0
VERTEX
  8
LAYER1
 10
1.4306
 20
419.2559
 30
0
 70
     0
  0
VERTEX
  8
LAYER1
 10
1.4444
 20
419.2698
 30
0
 70
     0
  0
SEQEND
  0
POLYLINE
  8
LAYER1
  6
CONTINUOUS
 62
     7
 66
     1
 70
     0
 40
0.0039
 41
0.0039
  0
VERTEX
  8
LAYER1
 10
1.4444
 20
419.1587
 30
0
 70
     0
  0
VERTEX
  8
LAYER1
 10
1.5174
 20
419.1721
 30
0
 70
     0
  0
VERTEX
  8
LAYER1
 10
1.5694
 20
419.2125
 30
0
 70
     0
  0
VERTEX
  8
LAYER1
 10
1.6007
 20
419.2798
 30
0
 70
     0
  0
VERTEX
  8
LAYER1
 10
1.6111
 20
419.3739
 30
0
 70
     0
  0
VERTEX
  8
LAYER1
 10
1.6111
 20
419.3739
 30
0
 70
     0
  0
VERTEX
  8
LAYER1
 10
1.6007
 20
419.4681
 30
0
 70
     0
  0
VERTEX
  8
LAYER1
 10
1.5694
 20
419.5354
 30
0
 70
     0
  0
VERTEX
  8
LAYER1
 10
1.5174
 20
419.5758
 30
0
 70
     0
  0
VERTEX
  8
LAYER1
 10
1.4444
 20
419.5892
 30
0
 70
     0
  0
SEQEND
  0
LINE
  8
LAYER1
  6
CONTINUOUS
 62
     7
 10
1.6111
 20
419.2698
 30
0
 11
1.4444
 21
419.2698
 31
0
  0
LINE
  8
LAYER1
  6
CONTINUOUS
 62
     7
 10
1.6111
 20
419.4781
 30
0
 11
1.4444
 21
419.4781
 31
0
  0
LINE
  8
LAYER1
  6
CONTINUOUS
 62
     7
 10
1.4167
 20
419.5475
 30
0
 11
1.4167
 21
419.2142
 31
0
  0
ENDBLK
  8
LAYER1
  0
BLOCK
  8
LAYER1
  2
Group37
 70
     0
 10
0
 20
0
 30
0
  0
LINE
  8
LAYER1
  6
CONTINUOUS
 62
     7
 10
2.1667
 20
419.2837
 30
0
 11
1.2917
 21
419.2837
 31
0
  0
POLYLINE
  8
LAYER1
  6
CONTINUOUS
 62
     0
 66
     1
 70
     0
 40
0.0039
 41
0.0039
  0
VERTEX
  8
LAYER1
 10
1.4167
 20
419.5337
 30
0
 70
     0
  0
VERTEX
  8
LAYER1
 10
1.625
 20
419.5337
 30
0
 70
     0
  0
VERTEX
  8
LAYER1
 10
1.625
 20
419.1864
 30
0
 70
     0
  0
VERTEX
  8
LAYER1
 10
1.4167
 20
419.1864
 30
0
 70
     0
  0
VERTEX
  8
LAYER1
 10
1.4167
 20
419.5337
 30
0
 70
     0
  0
SEQEND
  0
INSERT
  8
LAYER1
  2
Group36
 10
0
 20
0
 30
0
  0
ENDBLK
  8
LAYER1
  0
BLOCK
  8
LAYER1
  2
Group38
 70
     0
 10
0
 20
0
 30
0
  0
INSERT
  8
LAYER1
  2
Group35
 10
0
 20
0
 30
0
  0
INSERT
  8
LAYER1
  2
Group37
 10
0
 20
0
 30
0
  0
ENDBLK
  8
LAYER1
  0
BLOCK
  8
LAYER1
  2
Group39
 70
     0
 10
0
 20
0
 30
0
  0
LINE
  8
LAYER1
  6
CONTINUOUS
 62
     7
 10
2.6111
 20
420.7975
 30
0
 11
2.6111
 21
421.2975
 31
0
  0
POLYLINE
  8
LAYER1
  6
CONTINUOUS
 62
     7
 66
     1
 70
     0
 40
0.0039
 41
0.0039
  0
VERTEX
  8
LAYER1
 10
2.6111
 20
420.7975
 30
0
 70
     0
  0
VERTEX
  8
LAYER1
 10
2.5972
 20
420.7975
 30
0
 70
     0
  0
VERTEX
  8
LAYER1
 10
2.5694
 20
420.8253
 30
0
 70
     0
  0
VERTEX
  8
LAYER1
 10
2.5417
 20
420.8531
 30
0
 70
     0
  0
VERTEX
  8
LAYER1
 10
2.5278
 20
420.867
 30
0
 70
     0
  0
VERTEX
  8
LAYER1
 10
2.4861
 20
420.9225
 30
0
 70
     0
  0
VERTEX
  8
LAYER1
 10
2.4722
 20
420.9642
 30
0
 70
     0
  0
VERTEX
  8
LAYER1
 10
2.4583
 20
421.0198
 30
0
 70
     0
  0
VERTEX
  8
LAYER1
 10
2.4583
 20
421.0475
 30
0
 70
     0
  0
VERTEX
  8
LAYER1
 10
2.4583
 20
421.0753
 30
0
 70
     0
  0
VERTEX
  8
LAYER1
 10
2.4722
 20
421.1309
 30
0
 70
     0
  0
VERTEX
  8
LAYER1
 10
2.4861
 20
421.1725
 30
0
 70
     0
  0
VERTEX
  8
LAYER1
 10
2.5278
 20
421.2281
 30
0
 70
     0
  0
VERTEX
  8
LAYER1
 10
2.5417
 20
421.242
 30
0
 70
     0
  0
VERTEX
  8
LAYER1
 10
2.5694
 20
421.2559
 30
0
 70
     0
  0
VERTEX
  8
LAYER1
 10
2.5972
 20
421.2837
 30
0
 70
     0
  0
VERTEX
  8
LAYER1
 10
2.6111
 20
421.2975
 30
0
 70
     0
  0
SEQEND
  0
ENDBLK
  8
LAYER1
  0
BLOCK
  8
LAYER1
  2
Group40
 70
     0
 10
0
 20
0
 30
0
  0
LINE
  8
LAYER1
  6
CONTINUOUS
 62
     7
 10
2.8611
 20
420.9225
 30
0
 11
3.1944
 21
420.9225
 31
0
  0
LINE
  8
LAYER1
  6
CONTINUOUS
 62
     7
 10
2.8611
 20
420.9642
 30
0
 11
3.1944
 21
420.9642
 31
0
  0
LINE
  8
LAYER1
  6
CONTINUOUS
 62
     7
 10
2.8611
 20
421.0198
 30
0
 11
3.1944
 21
421.0198
 31
0
  0
LINE
  8
LAYER1
  6
CONTINUOUS
 62
     7
 10
2.8611
 20
421.0753
 30
0
 11
3.1944
 21
421.0753
 31
0
  0
LINE
  8
LAYER1
  6
CONTINUOUS
 62
     7
 10
2.8611
 20
421.117
 30
0
 11
3.1944
 21
421.117
 31
0
  0
LINE
  8
LAYER1
  6
CONTINUOUS
 62
     7
 10
2.8611
 20
421.1725
 30
0
 11
3.1944
 21
421.1725
 31
0
  0
LINE
  8
LAYER1
  6
CONTINUOUS
 62
     7
 10
2.8889
 20
420.9503
 30
0
 11
3.1667
 21
420.9503
 31
0
  0
LINE
  8
LAYER1
  6
CONTINUOUS
 62
     7
 10
2.8889
 20
420.992
 30
0
 11
3.1667
 21
420.992
 31
0
  0
LINE
  8
LAYER1
  6
CONTINUOUS
 62
     7
 10
2.8889
 20
421.0475
 30
0
 11
3.1667
 21
421.0475
 31
0
  0
LINE
  8
LAYER1
  6
CONTINUOUS
 62
     7
 10
2.8889
 20
421.0892
 30
0
 11
3.1667
 21
421.0892
 31
0
  0
ENDBLK
  8
LAYER1
  0
BLOCK
  8
LAYER1
  2
Group41
 70
     0
 10
0
 20
0
 30
0
  0
LINE
  8
LAYER1
  6
CONTINUOUS
 62
     7
 10
2.6111
 20
420.8392
 30
0
 11
2.6111
 21
421.242
 31
0
  0
POLYLINE
  8
LAYER1
  6
CONTINUOUS
 62
     7
 66
     1
 70
     0
 40
0.0039
 41
0.0039
  0
VERTEX
  8
LAYER1
 10
3.1944
 20
421.1725
 30
0
 70
     0
  0
VERTEX
  8
LAYER1
 10
3.1667
 20
421.2003
 30
0
 70
     0
  0
VERTEX
  8
LAYER1
 10
2.8889
 20
421.2003
 30
0
 70
     0
  0
VERTEX
  8
LAYER1
 10
2.8611
 20
421.1725
 30
0
 70
     0
  0
VERTEX
  8
LAYER1
 10
2.8889
 20
421.1448
 30
0
 70
     0
  0
VERTEX
  8
LAYER1
 10
2.8611
 20
421.117
 30
0
 70
     0
  0
VERTEX
  8
LAYER1
 10
2.8889
 20
421.0892
 30
0
 70
     0
  0
VERTEX
  8
LAYER1
 10
2.8611
 20
421.0753
 30
0
 70
     0
  0
VERTEX
  8
LAYER1
 10
2.8889
 20
421.0475
 30
0
 70
     0
  0
VERTEX
  8
LAYER1
 10
2.8611
 20
421.0198
 30
0
 70
     0
  0
VERTEX
  8
LAYER1
 10
2.8889
 20
420.992
 30
0
 70
     0
  0
VERTEX
  8
LAYER1
 10
2.8611
 20
420.9642
 30
0
 70
     0
  0
VERTEX
  8
LAYER1
 10
2.8889
 20
420.9503
 30
0
 70
     0
  0
VERTEX
  8
LAYER1
 10
2.8611
 20
420.9225
 30
0
 70
     0
  0
VERTEX
  8
LAYER1
 10
2.8889
 20
420.8948
 30
0
 70
     0
  0
VERTEX
  8
LAYER1
 10
3.1667
 20
420.8948
 30
0
 70
     0
  0
VERTEX
  8
LAYER1
 10
3.1944
 20
420.9225
 30
0
 70
     0
  0
VERTEX
  8
LAYER1
 10
3.1667
 20
420.9503
 30
0
 70
     0
  0
VERTEX
  8
LAYER1
 10
3.1944
 20
420.9642
 30
0
 70
     0
  0
VERTEX
  8
LAYER1
 10
3.1667
 20
420.992
 30
0
 70
     0
  0
VERTEX
  8
LAYER1
 10
3.1944
 20
421.0198
 30
0
 70
     0
  0
VERTEX
  8
LAYER1
 10
3.1667
 20
421.0475
 30
0
 70
     0
  0
VERTEX
  8
LAYER1
 10
3.1944
 20
421.0753
 30
0
 70
     0
  0
VERTEX
  8
LAYER1
 10
3.1667
 20
421.0892
 30
0
 70
     0
  0
VERTEX
  8
LAYER1
 10
3.1944
 20
421.117
 30
0
 70
     0
  0
VERTEX
  8
LAYER1
 10
3.1667
 20
421.1448
 30
0
 70
     0
  0
VERTEX
  8
LAYER1
 10
3.1944
 20
421.1725
 30
0
 70
     0
  0
SEQEND
  0
INSERT
  8
LAYER1
  2
Group40
 10
0
 20
0
 30
0
  0
ENDBLK
  8
LAYER1
  0
BLOCK
  8
LAYER1
  2
Group42
 70
     0
 10
0
 20
0
 30
0
  0
LINE
  8
LAYER1
  6
CONTINUOUS
 62
     7
 10
3.4028
 20
420.9225
 30
0
 11
3.4028
 21
421.1725
 31
0
  0
LINE
  8
LAYER1
  6
CONTINUOUS
 62
     7
 10
3.4722
 20
420.9225
 30
0
 11
3.4722
 21
421.1725
 31
0
  0
LINE
  8
LAYER1
  6
CONTINUOUS
 62
     7
 10
3.5278
 20
420.9225
 30
0
 11
3.5278
 21
421.1725
 31
0
  0
LINE
  8
LAYER1
  6
CONTINUOUS
 62
     7
 10
3.5972
 20
420.9225
 30
0
 11
3.5972
 21
421.1725
 31
0
  0
LINE
  8
LAYER1
  6
CONTINUOUS
 62
     7
 10
3.6528
 20
420.9225
 30
0
 11
3.6528
 21
421.1725
 31
0
  0
LINE
  8
LAYER1
  6
CONTINUOUS
 62
     7
 10
3.7222
 20
420.9225
 30
0
 11
3.7222
 21
421.1725
 31
0
  0
LINE
  8
LAYER1
  6
CONTINUOUS
 62
     7
 10
3.7778
 20
420.9225
 30
0
 11
3.7778
 21
421.1725
 31
0
  0
LINE
  8
LAYER1
  6
CONTINUOUS
 62
     7
 10
3.8472
 20
420.9225
 30
0
 11
3.8472
 21
421.1725
 31
0
  0
LINE
  8
LAYER1
  6
CONTINUOUS
 62
     7
 10
3.4444
 20
420.9503
 30
0
 11
3.4444
 21
421.1448
 31
0
  0
LINE
  8
LAYER1
  6
CONTINUOUS
 62
     7
 10
3.5
 20
420.9503
 30
0
 11
3.5
 21
421.1448
 31
0
  0
LINE
  8
LAYER1
  6
CONTINUOUS
 62
     7
 10
3.5694
 20
420.9503
 30
0
 11
3.5694
 21
421.1448
 31
0
  0
LINE
  8
LAYER1
  6
CONTINUOUS
 62
     7
 10
3.625
 20
420.9503
 30
0
 11
3.625
 21
421.1448
 31
0
  0
LINE
  8
LAYER1
  6
CONTINUOUS
 62
     7
 10
3.6944
 20
420.9503
 30
0
 11
3.6944
 21
421.1448
 31
0
  0
LINE
  8
LAYER1
  6
CONTINUOUS
 62
     7
 10
3.75
 20
420.9503
 30
0
 11
3.75
 21
421.1448
 31
0
  0
LINE
  8
LAYER1
  6
CONTINUOUS
 62
     7
 10
3.8194
 20
420.9503
 30
0
 11
3.8194
 21
421.1448
 31
0
  0
LINE
  8
LAYER1
  6
CONTINUOUS
 62
     7
 10
3.875
 20
420.9503
 30
0
 11
3.875
 21
421.1448
 31
0
  0
INSERT
  8
LAYER1
  2
Group39
 10
0
 20
0
 30
0
  0
INSERT
  8
LAYER1
  2
Group41
 10
0
 20
0
 30
0
  0
LINE
  8
LAYER1
  6
CONTINUOUS
 62
     7
 10
2.8889
 20
421.1448
 30
0
 11
3.1667
 21
421.1448
 31
0
  0
LINE
  8
LAYER1
  6
CONTINUOUS
 62
     7
 10
3.8472
 20
421.1725
 30
0
 11
3.875
 21
421.1448
 31
0
  0
LINE
  8
LAYER1
  6
CONTINUOUS
 62
     7
 10
3.8472
 20
420.9225
 30
0
 11
2.625
 21
420.9225
 31
0
  0
LINE
  8
LAYER1
  6
CONTINUOUS
 62
     7
 10
3.8472
 20
420.9225
 30
0
 11
3.875
 21
420.9503
 31
0
  0
ENDBLK
  8
LAYER1
  0
BLOCK
  8
LAYER1
  2
Group43
 70
     0
 10
0
 20
0
 30
0
  0
LINE
  8
LAYER1
  6
CONTINUOUS
 62
     7
 10
2.625
 20
421.1725
 30
0
 11
3.8472
 21
421.1725
 31
0
  0
LINE
  8
LAYER1
  6
CONTINUOUS
 62
     7
 10
4.9306
 20
422.9087
 30
0
 11
4.9306
 21
423.1587
 31
0
  0
LINE
  8
LAYER1
  6
CONTINUOUS
 62
     7
 10
4.9861
 20
422.9087
 30
0
 11
4.9861
 21
423.1587
 31
0
  0
LINE
  8
LAYER1
  6
CONTINUOUS
 62
     7
 10
5.0556
 20
422.9087
 30
0
 11
5.0556
 21
423.1587
 31
0
  0
LINE
  8
LAYER1
  6
CONTINUOUS
 62
     7
 10
5.1111
 20
422.9087
 30
0
 11
5.1111
 21
423.1587
 31
0
  0
LINE
  8
LAYER1
  6
CONTINUOUS
 62
     7
 10
5.1806
 20
422.9087
 30
0
 11
5.1806
 21
423.1587
 31
0
  0
LINE
  8
LAYER1
  6
CONTINUOUS
 62
     7
 10
5.2361
 20
422.9087
 30
0
 11
5.2361
 21
423.1587
 31
0
  0
LINE
  8
LAYER1
  6
CONTINUOUS
 62
     7
 10
5.3056
 20
422.9087
 30
0
 11
5.3056
 21
423.1587
 31
0
  0
LINE
  8
LAYER1
  6
CONTINUOUS
 62
     7
 10
5.3611
 20
422.9087
 30
0
 11
5.3611
 21
423.1587
 31
0
  0
LINE
  8
LAYER1
  6
CONTINUOUS
 62
     7
 10
4.9583
 20
422.9364
 30
0
 11
4.9583
 21
423.1309
 31
0
  0
LINE
  8
LAYER1
  6
CONTINUOUS
 62
     7
 10
5.0139
 20
422.9364
 30
0
 11
5.0139
 21
423.1309
 31
0
  0
LINE
  8
LAYER1
  6
CONTINUOUS
 62
     7
 10
5.0833
 20
422.9364
 30
0
 11
5.0833
 21
423.1309
 31
0
  0
LINE
  8
LAYER1
  6
CONTINUOUS
 62
     7
 10
5.1389
 20
422.9364
 30
0
 11
5.1389
 21
423.1309
 31
0
  0
LINE
  8
LAYER1
  6
CONTINUOUS
 62
     7
 10
5.2083
 20
422.9364
 30
0
 11
5.2083
 21
423.1309
 31
0
  0
LINE
  8
LAYER1
  6
CONTINUOUS
 62
     7
 10
5.2639
 20
422.9364
 30
0
 11
5.2639
 21
423.1309
 31
0
  0
LINE
  8
LAYER1
  6
CONTINUOUS
 62
     7
 10
5.3333
 20
422.9364
 30
0
 11
5.3333
 21
423.1309
 31
0
  0
LINE
  8
LAYER1
  6
CONTINUOUS
 62
     7
 10
5.3889
 20
422.9364
 30
0
 11
5.3889
 21
423.1309
 31
0
  0
POLYLINE
  8
LAYER1
  6
CONTINUOUS
 62
     7
 66
     1
 70
     0
 40
0.0039
 41
0.0039
  0
VERTEX
  8
LAYER1
 10
4.6111
 20
423.0337
 30
0
 70
     0
  0
VERTEX
  8
LAYER1
 10
4.625
 20
423.0059
 30
0
 70
     0
  0
VERTEX
  8
LAYER1
 10
4.625
 20
422.9642
 30
0
 70
     0
  0
VERTEX
  8
LAYER1
 10
4.625
 20
422.9364
 30
0
 70
     0
  0
VERTEX
  8
LAYER1
 10
4.625
 20
422.9087
 30
0
 70
     0
  0
VERTEX
  8
LAYER1
 10
4.625
 20
422.867
 30
0
 70
     0
  0
VERTEX
  8
LAYER1
 10
4.6111
 20
422.8531
 30
0
 70
     0
  0
SEQEND
  0
POLYLINE
  8
LAYER1
  6
CONTINUOUS
 62
     7
 66
     1
 70
     0
 40
0.0039
 41
0.0039
  0
VERTEX
  8
LAYER1
 10
4.6111
 20
423.2142
 30
0
 70
     0
  0
VERTEX
  8
LAYER1
 10
4.625
 20
423.1864
 30
0
 70
     0
  0
VERTEX
  8
LAYER1
 10
4.625
 20
423.1448
 30
0
 70
     0
  0
VERTEX
  8
LAYER1
 10
4.625
 20
423.1309
 30
0
 70
     0
  0
VERTEX
  8
LAYER1
 10
4.625
 20
423.1031
 30
0
 70
     0
  0
VERTEX
  8
LAYER1
 10
4.625
 20
423.0614
 30
0
 70
     0
  0
VERTEX
  8
LAYER1
 10
4.6111
 20
423.0337
 30
0
 70
     0
  0
SEQEND
  0
LINE
  8
LAYER1
  6
CONTINUOUS
 62
     7
 10
4.6111
 20
423.0337
 30
0
 11
4.4722
 21
423.0337
 31
0
  0
LINE
  8
LAYER1
  6
CONTINUOUS
 62
     7
 10
4.6111
 20
423.2281
 30
0
 11
4.4583
 21
423.2281
 31
0
  0
LINE
  8
LAYER1
  6
CONTINUOUS
 62
     7
 10
4.4583
 20
422.8531
 30
0
 11
4.6111
 21
422.8531
 31
0
  0
LINE
  8
LAYER1
  6
CONTINUOUS
 62
     7
 10
4.625
 20
422.9087
 30
0
 11
4.625
 21
423.1587
 31
0
  0
LINE
  8
LAYER1
  6
CONTINUOUS
 62
     7
 10
4.3194
 20
422.7281
 30
0
 11
4.3194
 21
423.3392
 31
0
  0
LINE
  8
LAYER1
  6
CONTINUOUS
 62
     7
 10
4.3611
 20
422.7281
 30
0
 11
4.3611
 21
423.3392
 31
0
  0
LINE
  8
LAYER1
  6
CONTINUOUS
 62
     7
 10
4.3194
 20
423.3392
 30
0
 11
4.3611
 21
423.3392
 31
0
  0
LINE
  8
LAYER1
  6
CONTINUOUS
 62
     7
 10
4.3194
 20
422.7281
 30
0
 11
4.3611
 21
422.7281
 31
0
  0
LINE
  8
LAYER1
  6
CONTINUOUS
 62
     7
 10
4.3611
 20
423.3392
 30
0
 11
4.4583
 21
423.2281
 31
0
  0
LINE
  8
LAYER1
  6
CONTINUOUS
 62
     7
 10
4.3611
 20
422.7281
 30
0
 11
4.4583
 21
422.8531
 31
0
  0
POLYLINE
  8
LAYER1
  6
CONTINUOUS
 62
     7
 66
     1
 70
     0
 40
0.0039
 41
0.0039
  0
VERTEX
  8
LAYER1
 10
4.4583
 20
423.0337
 30
0
 70
     0
  0
VERTEX
  8
LAYER1
 10
4.4722
 20
423.0059
 30
0
 70
     0
  0
VERTEX
  8
LAYER1
 10
4.4861
 20
422.9642
 30
0
 70
     0
  0
VERTEX
  8
LAYER1
 10
4.4861
 20
422.9364
 30
0
 70
     0
  0
VERTEX
  8
LAYER1
 10
4.4861
 20
422.9087
 30
0
 70
     0
  0
VERTEX
  8
LAYER1
 10
4.4722
 20
422.867
 30
0
 70
     0
  0
VERTEX
  8
LAYER1
 10
4.4583
 20
422.8531
 30
0
 70
     0
  0
SEQEND
  0
POLYLINE
  8
LAYER1
  6
CONTINUOUS
 62
     7
 66
     1
 70
     0
 40
0.0039
 41
0.0039
  0
VERTEX
  8
LAYER1
 10
4.4583
 20
423.2281
 30
0
 70
     0
  0
VERTEX
  8
LAYER1
 10
4.4722
 20
423.2003
 30
0
 70
     0
  0
VERTEX
  8
LAYER1
 10
4.4861
 20
423.1448
 30
0
 70
     0
  0
VERTEX
  8
LAYER1
 10
4.4861
 20
423.1309
 30
0
 70
     0
  0
VERTEX
  8
LAYER1
 10
4.4861
 20
423.1031
 30
0
 70
     0
  0
VERTEX
  8
LAYER1
 10
4.4722
 20
423.0475
 30
0
 70
     0
  0
VERTEX
  8
LAYER1
 10
4.4583
 20
423.0337
 30
0
 70
     0
  0
SEQEND
  0
LINE
  8
LAYER1
  6
CONTINUOUS
 62
     7
 10
5.3611
 20
423.1587
 30
0
 11
5.3889
 21
423.1309
 31
0
  0
LINE
  8
LAYER1
  6
CONTINUOUS
 62
     7
 10
5.3611
 20
422.9087
 30
0
 11
5.3889
 21
422.9364
 31
0
  0
LINE
  8
LAYER1
  6
CONTINUOUS
 62
     7
 10
4.625
 20
423.1587
 30
0
 11
5.3611
 21
423.1587
 31
0
  0
ENDBLK
  8
LAYER1
  0
BLOCK
  8
LAYER1
  2
Group44
 70
     0
 10
0
 20
0
 30
0
  0
LINE
  8
LAYER1
  6
CONTINUOUS
 62
     7
 10
5.3611
 20
422.9087
 30
0
 11
4.6389
 21
422.9087
 31
0
  0
LINE
  8
LAYER1
  6
CONTINUOUS
 62
     7
 10
2.8194
 20
425.0614
 30
0
 11
2.8194
 21
425.3114
 31
0
  0
LINE
  8
LAYER1
  6
CONTINUOUS
 62
     7
 10
3.1944
 20
425.0614
 30
0
 11
3.1944
 21
425.3114
 31
0
  0
LINE
  8
LAYER1
  6
CONTINUOUS
 62
     7
 10
3.25
 20
425.0614
 30
0
 11
3.25
 21
425.3114
 31
0
  0
LINE
  8
LAYER1
  6
CONTINUOUS
 62
     7
 10
3.3194
 20
425.0614
 30
0
 11
3.3194
 21
425.3114
 31
0
  0
LINE
  8
LAYER1
  6
CONTINUOUS
 62
     7
 10
3.375
 20
425.0614
 30
0
 11
3.375
 21
425.3114
 31
0
  0
LINE
  8
LAYER1
  6
CONTINUOUS
 62
     7
 10
3.4444
 20
425.0614
 30
0
 11
3.4444
 21
425.3114
 31
0
  0
LINE
  8
LAYER1
  6
CONTINUOUS
 62
     7
 10
3.5
 20
425.0614
 30
0
 11
3.5
 21
425.3114
 31
0
  0
LINE
  8
LAYER1
  6
CONTINUOUS
 62
     7
 10
3.5694
 20
425.0614
 30
0
 11
3.5694
 21
425.3114
 31
0
  0
LINE
  8
LAYER1
  6
CONTINUOUS
 62
     7
 10
3.625
 20
425.0614
 30
0
 11
3.625
 21
425.3114
 31
0
  0
LINE
  8
LAYER1
  6
CONTINUOUS
 62
     7
 10
3.2222
 20
425.0892
 30
0
 11
3.2222
 21
425.2698
 31
0
  0
LINE
  8
LAYER1
  6
CONTINUOUS
 62
     7
 10
3.2778
 20
425.0892
 30
0
 11
3.2778
 21
425.2698
 31
0
  0
LINE
  8
LAYER1
  6
CONTINUOUS
 62
     7
 10
3.3472
 20
425.0892
 30
0
 11
3.3472
 21
425.2698
 31
0
  0
LINE
  8
LAYER1
  6
CONTINUOUS
 62
     7
 10
3.4028
 20
425.0892
 30
0
 11
3.4028
 21
425.2698
 31
0
  0
LINE
  8
LAYER1
  6
CONTINUOUS
 62
     7
 10
3.4722
 20
425.0892
 30
0
 11
3.4722
 21
425.2698
 31
0
  0
LINE
  8
LAYER1
  6
CONTINUOUS
 62
     7
 10
3.5278
 20
425.0892
 30
0
 11
3.5278
 21
425.2698
 31
0
  0
LINE
  8
LAYER1
  6
CONTINUOUS
 62
     7
 10
3.5972
 20
425.0892
 30
0
 11
3.5972
 21
425.2698
 31
0
  0
LINE
  8
LAYER1
  6
CONTINUOUS
 62
     7
 10
3.6528
 20
425.0892
 30
0
 11
3.6528
 21
425.2698
 31
0
  0
LINE
  8
LAYER1
  6
CONTINUOUS
 62
     7
 10
2.5972
 20
425.4364
 30
0
 11
2.5972
 21
424.9225
 31
0
  0
POLYLINE
  8
LAYER1
  6
CONTINUOUS
 62
     7
 66
     1
 70
     0
 40
0.0039
 41
0.0039
  0
VERTEX
  8
LAYER1
 10
2.6806
 20
425.3114
 30
0
 70
     0
  0
VERTEX
  8
LAYER1
 10
2.6944
 20
425.2975
 30
0
 70
     0
  0
VERTEX
  8
LAYER1
 10
2.7083
 20
425.2559
 30
0
 70
     0
  0
VERTEX
  8
LAYER1
 10
2.7222
 20
425.2281
 30
0
 70
     0
  0
VERTEX
  8
LAYER1
 10
2.7222
 20
425.2003
 30
0
 70
     0
  0
VERTEX
  8
LAYER1
 10
2.7222
 20
425.1864
 30
0
 70
     0
  0
VERTEX
  8
LAYER1
 10
2.7222
 20
425.1725
 30
0
 70
     0
  0
VERTEX
  8
LAYER1
 10
2.7222
 20
425.1448
 30
0
 70
     0
  0
VERTEX
  8
LAYER1
 10
2.7083
 20
425.117
 30
0
 70
     0
  0
VERTEX
  8
LAYER1
 10
2.6944
 20
425.0753
 30
0
 70
     0
  0
VERTEX
  8
LAYER1
 10
2.6806
 20
425.0614
 30
0
 70
     0
  0
SEQEND
  0
LINE
  8
LAYER1
  6
CONTINUOUS
 62
     7
 10
3.6528
 20
425.2698
 30
0
 11
3.625
 21
425.3114
 31
0
  0
LINE
  8
LAYER1
  6
CONTINUOUS
 62
     7
 10
3.6528
 20
425.0892
 30
0
 11
3.625
 21
425.0614
 31
0
  0
LINE
  8
LAYER1
  6
CONTINUOUS
 62
     7
 10
2.6806
 20
425.3114
 30
0
 11
3.625
 21
425.3114
 31
0
  0
ENDBLK
  8
LAYER1
  0
BLOCK
  8
LAYER1
  2
Group45
 70
     0
 10
0
 20
0
 30
0
  0
LINE
  8
LAYER1
  6
CONTINUOUS
 62
     7
 10
3.625
 20
425.0614
 30
0
 11
2.6806
 21
425.0614
 31
0
  0
POLYLINE
  8
LAYER1
  6
CONTINUOUS
 62
     7
 66
     1
 70
     0
 40
0.0039
 41
0.0039
  0
VERTEX
  8
LAYER1
 10
4.6667
 20
427.0059
 30
0
 70
     0
  0
VERTEX
  8
LAYER1
 10
4.6667
 20
427.0198
 30
0
 70
     0
  0
VERTEX
  8
LAYER1
 10
4.6528
 20
427.0614
 30
0
 70
     0
  0
VERTEX
  8
LAYER1
 10
4.6528
 20
427.0892
 30
0
 70
     0
  0
VERTEX
  8
LAYER1
 10
4.6528
 20
427.1031
 30
0
 70
     0
  0
VERTEX
  8
LAYER1
 10
4.6667
 20
427.1448
 30
0
 70
     0
  0
VERTEX
  8
LAYER1
 10
4.6667
 20
427.1587
 30
0
 70
     0
  0
SEQEND
  0
POLYLINE
  8
LAYER1
  6
CONTINUOUS
 62
     7
 66
     1
 70
     0
 40
0.0039
 41
0.0039
  0
VERTEX
  8
LAYER1
 10
5.0347
 20
427.2559
 30
0
 70
     0
  0
VERTEX
  8
LAYER1
 10
5.0256
 20
427.2459
 30
0
 70
     0
  0
VERTEX
  8
LAYER1
 10
5.0191
 20
427.216
 30
0
 70
     0
  0
VERTEX
  8
LAYER1
 10
5.0152
 20
427.166
 30
0
 70
     0
  0
VERTEX
  8
LAYER1
 10
5.0139
 20
427.0962
 30
0
 70
     0
  0
VERTEX
  8
LAYER1
 10
5.0139
 20
427.0962
 30
0
 70
     0
  0
VERTEX
  8
LAYER1
 10
5.0152
 20
427.0263
 30
0
 70
     0
  0
VERTEX
  8
LAYER1
 10
5.0191
 20
426.9764
 30
0
 70
     0
  0
VERTEX
  8
LAYER1
 10
5.0256
 20
426.9464
 30
0
 70
     0
  0
VERTEX
  8
LAYER1
 10
5.0347
 20
426.9364
 30
0
 70
     0
  0
VERTEX
  8
LAYER1
 10
5.0347
 20
426.9364
 30
0
 70
     0
  0
VERTEX
  8
LAYER1
 10
5.0438
 20
426.9464
 30
0
 70
     0
  0
VERTEX
  8
LAYER1
 10
5.0503
 20
426.9764
 30
0
 70
     0
  0
VERTEX
  8
LAYER1
 10
5.0543
 20
427.0263
 30
0
 70
     0
  0
VERTEX
  8
LAYER1
 10
5.0556
 20
427.0962
 30
0
 70
     0
  0
VERTEX
  8
LAYER1
 10
5.0556
 20
427.0962
 30
0
 70
     0
  0
VERTEX
  8
LAYER1
 10
5.0543
 20
427.166
 30
0
 70
     0
  0
VERTEX
  8
LAYER1
 10
5.0503
 20
427.216
 30
0
 70
     0
  0
VERTEX
  8
LAYER1
 10
5.0438
 20
427.2459
 30
0
 70
     0
  0
VERTEX
  8
LAYER1
 10
5.0347
 20
427.2559
 30
0
 70
     0
  0
SEQEND
  0
LINE
  8
LAYER1
  6
CONTINUOUS
 62
     7
 10
5
 20
427.2142
 30
0
 11
5.0139
 21
427.2559
 31
0
  0
LINE
  8
LAYER1
  6
CONTINUOUS
 62
     7
 10
5
 20
426.9642
 30
0
 11
5.0139
 21
426.9364
 31
0
  0
POLYLINE
  8
LAYER1
  6
CONTINUOUS
 62
     7
 66
     1
 70
     0
 40
0.0039
 41
0.0039
  0
VERTEX
  8
LAYER1
 10
4.6944
 20
426.9642
 30
0
 70
     0
  0
VERTEX
  8
LAYER1
 10
4.6944
 20
426.9642
 30
0
 70
     0
  0
VERTEX
  8
LAYER1
 10
4.6944
 20
426.9781
 30
0
 70
     0
  0
VERTEX
  8
LAYER1
 10
4.6806
 20
426.9781
 30
0
 70
     0
  0
VERTEX
  8
LAYER1
 10
4.6806
 20
426.992
 30
0
 70
     0
  0
VERTEX
  8
LAYER1
 10
4.6667
 20
427.0198
 30
0
 70
     0
  0
VERTEX
  8
LAYER1
 10
4.6667
 20
427.0337
 30
0
 70
     0
  0
VERTEX
  8
LAYER1
 10
4.6667
 20
427.0475
 30
0
 70
     0
  0
VERTEX
  8
LAYER1
 10
4.6806
 20
427.0753
 30
0
 70
     0
  0
VERTEX
  8
LAYER1
 10
4.6806
 20
427.0892
 30
0
 70
     0
  0
VERTEX
  8
LAYER1
 10
4.6944
 20
427.0892
 30
0
 70
     0
  0
SEQEND
  0
POLYLINE
  8
LAYER1
  6
CONTINUOUS
 62
     7
 66
     1
 70
     0
 40
0.0039
 41
0.0039
  0
VERTEX
  8
LAYER1
 10
4.6944
 20
427.0892
 30
0
 70
     0
  0
VERTEX
  8
LAYER1
 10
4.6944
 20
427.0892
 30
0
 70
     0
  0
VERTEX
  8
LAYER1
 10
4.6944
 20
427.1031
 30
0
 70
     0
  0
VERTEX
  8
LAYER1
 10
4.6806
 20
427.1031
 30
0
 70
     0
  0
VERTEX
  8
LAYER1
 10
4.6806
 20
427.117
 30
0
 70
     0
  0
VERTEX
  8
LAYER1
 10
4.6667
 20
427.1448
 30
0
 70
     0
  0
VERTEX
  8
LAYER1
 10
4.6667
 20
427.1587
 30
0
 70
     0
  0
VERTEX
  8
LAYER1
 10
4.6667
 20
427.1725
 30
0
 70
     0
  0
VERTEX
  8
LAYER1
 10
4.6806
 20
427.2003
 30
0
 70
     0
  0
VERTEX
  8
LAYER1
 10
4.6806
 20
427.2142
 30
0
 70
     0
  0
VERTEX
  8
LAYER1
 10
4.6944
 20
427.2142
 30
0
 70
     0
  0
SEQEND
  0
LINE
  8
LAYER1
  6
CONTINUOUS
 62
     7
 10
5
 20
426.9642
 30
0
 11
5
 21
427.2142
 31
0
  0
LINE
  8
LAYER1
  6
CONTINUOUS
 62
     7
 10
4.6944
 20
426.9642
 30
0
 11
5
 21
426.9642
 31
0
  0
LINE
  8
LAYER1
  6
CONTINUOUS
 62
     7
 10
5
 20
427.2142
 30
0
 11
4.6944
 21
427.2142
 31
0
  0
ENDBLK
  8
LAYER1
  0
BLOCK
  8
LAYER1
  2
Group46
 70
     0
 10
0
 20
0
 30
0
  0
INSERT
  8
LAYER1
  2
Group45
 10
0
 20
0
 30
0
  0
LINE
  8
LAYER1
  6
CONTINUOUS
 62
     7
 10
4.6944
 20
427.0892
 30
0
 11
5
 21
427.0892
 31
0
  0
LINE
  8
LAYER1
  6
CONTINUOUS
 62
     7
 10
5.375
 20
427.1864
 30
0
 11
5.375
 21
427.0059
 31
0
  0
LINE
  8
LAYER1
  6
CONTINUOUS
 62
     7
 10
5.4306
 20
427.1864
 30
0
 11
5.4306
 21
427.0059
 31
0
  0
LINE
  8
LAYER1
  6
CONTINUOUS
 62
     7
 10
5.5
 20
427.1864
 30
0
 11
5.5
 21
427.0059
 31
0
  0
LINE
  8
LAYER1
  6
CONTINUOUS
 62
     7
 10
5.5556
 20
427.1864
 30
0
 11
5.5556
 21
427.0059
 31
0
  0
LINE
  8
LAYER1
  6
CONTINUOUS
 62
     7
 10
5.625
 20
427.1864
 30
0
 11
5.625
 21
427.0059
 31
0
  0
LINE
  8
LAYER1
  6
CONTINUOUS
 62
     7
 10
5.6806
 20
427.1864
 30
0
 11
5.6806
 21
427.0059
 31
0
  0
LINE
  8
LAYER1
  6
CONTINUOUS
 62
     7
 10
5.75
 20
427.1864
 30
0
 11
5.75
 21
427.0059
 31
0
  0
LINE
  8
LAYER1
  6
CONTINUOUS
 62
     7
 10
5.8056
 20
427.1864
 30
0
 11
5.8056
 21
427.0059
 31
0
  0
LINE
  8
LAYER1
  6
CONTINUOUS
 62
     7
 10
5.875
 20
427.1864
 30
0
 11
5.875
 21
427.0059
 31
0
  0
LINE
  8
LAYER1
  6
CONTINUOUS
 62
     7
 10
5.4028
 20
427.1587
 30
0
 11
5.4028
 21
427.0198
 31
0
  0
LINE
  8
LAYER1
  6
CONTINUOUS
 62
     7
 10
5.4583
 20
427.1587
 30
0
 11
5.4583
 21
427.0198
 31
0
  0
LINE
  8
LAYER1
  6
CONTINUOUS
 62
     7
 10
5.5278
 20
427.1587
 30
0
 11
5.5278
 21
427.0198
 31
0
  0
LINE
  8
LAYER1
  6
CONTINUOUS
 62
     7
 10
5.5833
 20
427.1587
 30
0
 11
5.5833
 21
427.0198
 31
0
  0
LINE
  8
LAYER1
  6
CONTINUOUS
 62
     7
 10
5.6528
 20
427.1587
 30
0
 11
5.6528
 21
427.0198
 31
0
  0
LINE
  8
LAYER1
  6
CONTINUOUS
 62
     7
 10
5.7083
 20
427.1587
 30
0
 11
5.7083
 21
427.0198
 31
0
  0
LINE
  8
LAYER1
  6
CONTINUOUS
 62
     7
 10
5.7778
 20
427.1587
 30
0
 11
5.7778
 21
427.0198
 31
0
  0
LINE
  8
LAYER1
  6
CONTINUOUS
 62
     7
 10
5.8333
 20
427.1587
 30
0
 11
5.8333
 21
427.0198
 31
0
  0
LINE
  8
LAYER1
  6
CONTINUOUS
 62
     7
 10
5.9028
 20
427.1587
 30
0
 11
5.9028
 21
427.0198
 31
0
  0
LINE
  8
LAYER1
  6
CONTINUOUS
 62
     7
 10
5.875
 20
427.1864
 30
0
 11
5.9028
 21
427.1587
 31
0
  0
LINE
  8
LAYER1
  6
CONTINUOUS
 62
     7
 10
5.9028
 20
427.0198
 30
0
 11
5.875
 21
427.0059
 31
0
  0
LINE
  8
LAYER1
  6
CONTINUOUS
 62
     7
 10
5.0556
 20
427.0059
 30
0
 11
5.875
 21
427.0059
 31
0
  0
ENDBLK
  8
LAYER1
  0
BLOCK
  8
LAYER1
  2
Group47
 70
     0
 10
0
 20
0
 30
0
  0
LINE
  8
LAYER1
  6
CONTINUOUS
 62
     7
 10
5.875
 20
427.1864
 30
0
 11
5.0556
 21
427.1864
 31
0
  0
POLYLINE
  8
LAYER1
  6
CONTINUOUS
 62
     7
 66
     1
 70
     0
 40
0.0039
 41
0.0039
  0
VERTEX
  8
LAYER1
 10
4.6111
 20
419.4642
 30
0
 70
     0
  0
VERTEX
  8
LAYER1
 10
4.6389
 20
419.4364
 30
0
 70
     0
  0
VERTEX
  8
LAYER1
 10
4.6806
 20
419.4364
 30
0
 70
     0
  0
VERTEX
  8
LAYER1
 10
4.7083
 20
419.4642
 30
0
 70
     0
  0
VERTEX
  8
LAYER1
 10
4.7361
 20
419.4364
 30
0
 70
     0
  0
VERTEX
  8
LAYER1
 10
4.7639
 20
419.4364
 30
0
 70
     0
  0
VERTEX
  8
LAYER1
 10
4.8056
 20
419.4642
 30
0
 70
     0
  0
VERTEX
  8
LAYER1
 10
4.8333
 20
419.4364
 30
0
 70
     0
  0
VERTEX
  8
LAYER1
 10
4.8611
 20
419.4364
 30
0
 70
     0
  0
VERTEX
  8
LAYER1
 10
4.8889
 20
419.4642
 30
0
 70
     0
  0
VERTEX
  8
LAYER1
 10
4.9306
 20
419.4364
 30
0
 70
     0
  0
VERTEX
  8
LAYER1
 10
4.9583
 20
419.4364
 30
0
 70
     0
  0
VERTEX
  8
LAYER1
 10
4.9861
 20
419.4642
 30
0
 70
     0
  0
VERTEX
  8
LAYER1
 10
5.0139
 20
419.4364
 30
0
 70
     0
  0
VERTEX
  8
LAYER1
 10
5.0556
 20
419.4364
 30
0
 70
     0
  0
VERTEX
  8
LAYER1
 10
5.0833
 20
419.4642
 30
0
 70
     0
  0
VERTEX
  8
LAYER1
 10
5.1111
 20
419.4364
 30
0
 70
     0
  0
VERTEX
  8
LAYER1
 10
5.1389
 20
419.4364
 30
0
 70
     0
  0
VERTEX
  8
LAYER1
 10
5.1806
 20
419.4642
 30
0
 70
     0
  0
VERTEX
  8
LAYER1
 10
5.2083
 20
419.4364
 30
0
 70
     0
  0
VERTEX
  8
LAYER1
 10
5.2361
 20
419.4364
 30
0
 70
     0
  0
VERTEX
  8
LAYER1
 10
5.2639
 20
419.4642
 30
0
 70
     0
  0
VERTEX
  8
LAYER1
 10
5.3056
 20
419.4364
 30
0
 70
     0
  0
VERTEX
  8
LAYER1
 10
5.3333
 20
419.4225
 30
0
 70
     0
  0
VERTEX
  8
LAYER1
 10
5.3611
 20
419.4503
 30
0
 70
     0
  0
VERTEX
  8
LAYER1
 10
5.3889
 20
419.4087
 30
0
 70
     0
  0
VERTEX
  8
LAYER1
 10
5.4306
 20
419.4087
 30
0
 70
     0
  0
VERTEX
  8
LAYER1
 10
5.4583
 20
419.4364
 30
0
 70
     0
  0
VERTEX
  8
LAYER1
 10
5.4861
 20
419.3948
 30
0
 70
     0
  0
SEQEND
  0
LINE
  8
LAYER1
  6
CONTINUOUS
 62
     7
 10
4.6111
 20
419.4642
 30
0
 11
4.6389
 21
419.2837
 31
0
  0
POLYLINE
  8
LAYER1
  6
CONTINUOUS
 62
     7
 66
     1
 70
     0
 40
0.0039
 41
0.0039
  0
VERTEX
  8
LAYER1
 10
4.6806
 20
419.3114
 30
0
 70
     0
  0
VERTEX
  8
LAYER1
 10
4.7083
 20
419.3114
 30
0
 70
     0
  0
VERTEX
  8
LAYER1
 10
4.7361
 20
419.2837
 30
0
 70
     0
  0
VERTEX
  8
LAYER1
 10
4.7639
 20
419.3114
 30
0
 70
     0
  0
VERTEX
  8
LAYER1
 10
4.8056
 20
419.3114
 30
0
 70
     0
  0
VERTEX
  8
LAYER1
 10
4.8333
 20
419.2837
 30
0
 70
     0
  0
VERTEX
  8
LAYER1
 10
4.8611
 20
419.3114
 30
0
 70
     0
  0
VERTEX
  8
LAYER1
 10
4.8889
 20
419.3114
 30
0
 70
     0
  0
VERTEX
  8
LAYER1
 10
4.9306
 20
419.2837
 30
0
 70
     0
  0
VERTEX
  8
LAYER1
 10
4.9583
 20
419.3114
 30
0
 70
     0
  0
VERTEX
  8
LAYER1
 10
4.9861
 20
419.3114
 30
0
 70
     0
  0
VERTEX
  8
LAYER1
 10
5.0139
 20
419.2837
 30
0
 70
     0
  0
VERTEX
  8
LAYER1
 10
5.0556
 20
419.3114
 30
0
 70
     0
  0
VERTEX
  8
LAYER1
 10
5.0833
 20
419.3114
 30
0
 70
     0
  0
VERTEX
  8
LAYER1
 10
5.1111
 20
419.2837
 30
0
 70
     0
  0
VERTEX
  8
LAYER1
 10
5.1389
 20
419.3114
 30
0
 70
     0
  0
VERTEX
  8
LAYER1
 10
5.1806
 20
419.3114
 30
0
 70
     0
  0
VERTEX
  8
LAYER1
 10
5.2083
 20
419.2837
 30
0
 70
     0
  0
VERTEX
  8
LAYER1
 10
5.2361
 20
419.3114
 30
0
 70
     0
  0
VERTEX
  8
LAYER1
 10
5.2639
 20
419.3114
 30
0
 70
     0
  0
VERTEX
  8
LAYER1
 10
5.3056
 20
419.2975
 30
0
 70
     0
  0
VERTEX
  8
LAYER1
 10
5.3333
 20
419.3253
 30
0
 70
     0
  0
VERTEX
  8
LAYER1
 10
5.3611
 20
419.3392
 30
0
 70
     0
  0
VERTEX
  8
LAYER1
 10
5.3889
 20
419.3114
 30
0
 70
     0
  0
VERTEX
  8
LAYER1
 10
5.4306
 20
419.3392
 30
0
 70
     0
  0
VERTEX
  8
LAYER1
 10
5.4583
 20
419.3531
 30
0
 70
     0
  0
VERTEX
  8
LAYER1
 10
5.4861
 20
419.3253
 30
0
 70
     0
  0
VERTEX
  8
LAYER1
 10
5.5139
 20
419.367
 30
0
 70
     0
  0
SEQEND
  0
LINE
  8
LAYER1
  6
CONTINUOUS
 62
     7
 10
4.6389
 20
419.4364
 30
0
 11
4.6806
 21
419.3114
 31
0
  0
LINE
  8
LAYER1
  6
CONTINUOUS
 62
     7
 10
4.6806
 20
419.4364
 30
0
 11
4.7083
 21
419.3114
 31
0
  0
LINE
  8
LAYER1
  6
CONTINUOUS
 62
     7
 10
4.7083
 20
419.4642
 30
0
 11
4.7361
 21
419.2837
 31
0
  0
LINE
  8
LAYER1
  6
CONTINUOUS
 62
     7
 10
4.7361
 20
419.4364
 30
0
 11
4.7639
 21
419.3114
 31
0
  0
LINE
  8
LAYER1
  6
CONTINUOUS
 62
     7
 10
4.7639
 20
419.4364
 30
0
 11
4.8056
 21
419.3114
 31
0
  0
LINE
  8
LAYER1
  6
CONTINUOUS
 62
     7
 10
4.8056
 20
419.4642
 30
0
 11
4.8333
 21
419.2837
 31
0
  0
LINE
  8
LAYER1
  6
CONTINUOUS
 62
     7
 10
4.8333
 20
419.4364
 30
0
 11
4.8611
 21
419.3114
 31
0
  0
LINE
  8
LAYER1
  6
CONTINUOUS
 62
     7
 10
4.8611
 20
419.4364
 30
0
 11
4.8889
 21
419.3114
 31
0
  0
LINE
  8
LAYER1
  6
CONTINUOUS
 62
     7
 10
4.9306
 20
419.4364
 30
0
 11
4.9583
 21
419.3114
 31
0
  0
LINE
  8
LAYER1
  6
CONTINUOUS
 62
     7
 10
4.8889
 20
419.4642
 30
0
 11
4.9306
 21
419.2837
 31
0
  0
LINE
  8
LAYER1
  6
CONTINUOUS
 62
     7
 10
3.7083
 20
419.4642
 30
0
 11
4.6111
 21
419.4642
 31
0
  0
LINE
  8
LAYER1
  6
CONTINUOUS
 62
     7
 10
4.6389
 20
419.2837
 30
0
 11
3.7083
 21
419.2837
 31
0
  0
LINE
  8
LAYER1
  6
CONTINUOUS
 62
     7
 10
4.6389
 20
419.2837
 30
0
 11
4.6806
 21
419.3114
 31
0
  0
LINE
  8
LAYER1
  6
CONTINUOUS
 62
     7
 10
4.9583
 20
419.4364
 30
0
 11
4.9861
 21
419.3114
 31
0
  0
LINE
  8
LAYER1
  6
CONTINUOUS
 62
     7
 10
4.9861
 20
419.4642
 30
0
 11
5.0139
 21
419.2837
 31
0
  0
LINE
  8
LAYER1
  6
CONTINUOUS
 62
     7
 10
5.0139
 20
419.4364
 30
0
 11
5.0556
 21
419.3114
 31
0
  0
LINE
  8
LAYER1
  6
CONTINUOUS
 62
     7
 10
5.0556
 20
419.4364
 30
0
 11
5.0833
 21
419.3114
 31
0
  0
LINE
  8
LAYER1
  6
CONTINUOUS
 62
     7
 10
5.0833
 20
419.4642
 30
0
 11
5.1111
 21
419.2837
 31
0
  0
LINE
  8
LAYER1
  6
CONTINUOUS
 62
     7
 10
5.1111
 20
419.4364
 30
0
 11
5.1389
 21
419.3114
 31
0
  0
LINE
  8
LAYER1
  6
CONTINUOUS
 62
     7
 10
5.1389
 20
419.4364
 30
0
 11
5.1806
 21
419.3114
 31
0
  0
LINE
  8
LAYER1
  6
CONTINUOUS
 62
     7
 10
5.1806
 20
419.4642
 30
0
 11
5.2083
 21
419.2837
 31
0
  0
LINE
  8
LAYER1
  6
CONTINUOUS
 62
     7
 10
5.2083
 20
419.4364
 30
0
 11
5.2361
 21
419.3114
 31
0
  0
LINE
  8
LAYER1
  6
CONTINUOUS
 62
     7
 10
5.2361
 20
419.4364
 30
0
 11
5.2639
 21
419.3114
 31
0
  0
LINE
  8
LAYER1
  6
CONTINUOUS
 62
     7
 10
5.2639
 20
419.4642
 30
0
 11
5.3056
 21
419.2975
 31
0
  0
LINE
  8
LAYER1
  6
CONTINUOUS
 62
     7
 10
5.3056
 20
419.4364
 30
0
 11
5.3333
 21
419.3253
 31
0
  0
LINE
  8
LAYER1
  6
CONTINUOUS
 62
     7
 10
5.3333
 20
419.4225
 30
0
 11
5.3611
 21
419.3392
 31
0
  0
LINE
  8
LAYER1
  6
CONTINUOUS
 62
     7
 10
5.3611
 20
419.4503
 30
0
 11
5.3889
 21
419.3114
 31
0
  0
LINE
  8
LAYER1
  6
CONTINUOUS
 62
     7
 10
5.4861
 20
419.3948
 30
0
 11
5.5972
 21
419.3809
 31
0
  0
LINE
  8
LAYER1
  6
CONTINUOUS
 62
     7
 10
5.5139
 20
419.367
 30
0
 11
5.5972
 21
419.3809
 31
0
  0
LINE
  8
LAYER1
  6
CONTINUOUS
 62
     7
 10
5.3889
 20
419.4087
 30
0
 11
5.4306
 21
419.3392
 31
0
  0
LINE
  8
LAYER1
  6
CONTINUOUS
 62
     7
 10
5.4306
 20
419.4087
 30
0
 11
5.4583
 21
419.3531
 31
0
  0
ENDBLK
  8
LAYER1
  0
BLOCK
  8
LAYER1
  2
Group48
 70
     0
 10
0
 20
0
 30
0
  0
POLYLINE
  8
LAYER1
  6
CONTINUOUS
 62
     7
 66
     1
 70
     0
 40
0.0039
 41
0.0039
  0
VERTEX
  8
LAYER1
 10
3.7222
 20
419.2698
 30
0
 70
     0
  0
VERTEX
  8
LAYER1
 10
3.7222
 20
419.2837
 30
0
 70
     0
  0
VERTEX
  8
LAYER1
 10
3.7083
 20
419.3392
 30
0
 70
     0
  0
VERTEX
  8
LAYER1
 10
3.7083
 20
419.3809
 30
0
 70
     0
  0
VERTEX
  8
LAYER1
 10
3.7083
 20
419.4087
 30
0
 70
     0
  0
VERTEX
  8
LAYER1
 10
3.7222
 20
419.4642
 30
0
 70
     0
  0
VERTEX
  8
LAYER1
 10
3.7222
 20
419.492
 30
0
 70
     0
  0
SEQEND
  0
POLYLINE
  8
LAYER1
  6
CONTINUOUS
 62
     7
 66
     1
 70
     0
 40
0.0039
 41
0.0039
  0
VERTEX
  8
LAYER1
 10
3.7222
 20
419.492
 30
0
 70
     0
  0
VERTEX
  8
LAYER1
 10
3.7222
 20
419.492
 30
0
 70
     0
  0
VERTEX
  8
LAYER1
 10
3.7222
 20
419.492
 30
0
 70
     0
  0
VERTEX
  8
LAYER1
 10
3.7083
 20
419.5198
 30
0
 70
     0
  0
VERTEX
  8
LAYER1
 10
3.7083
 20
419.5337
 30
0
 70
     0
  0
VERTEX
  8
LAYER1
 10
3.7083
 20
419.5475
 30
0
 70
     0
  0
VERTEX
  8
LAYER1
 10
3.7222
 20
419.5892
 30
0
 70
     0
  0
VERTEX
  8
LAYER1
 10
3.7222
 20
419.5892
 30
0
 70
     0
  0
VERTEX
  8
LAYER1
 10
3.7222
 20
419.5892
 30
0
 70
     0
  0
SEQEND
  0
POLYLINE
  8
LAYER1
  6
CONTINUOUS
 62
     7
 66
     1
 70
     0
 40
0.0039
 41
0.0039
  0
VERTEX
  8
LAYER1
 10
3.7222
 20
419.1587
 30
0
 70
     0
  0
VERTEX
  8
LAYER1
 10
3.7222
 20
419.1587
 30
0
 70
     0
  0
VERTEX
  8
LAYER1
 10
3.7222
 20
419.1725
 30
0
 70
     0
  0
VERTEX
  8
LAYER1
 10
3.7083
 20
419.2003
 30
0
 70
     0
  0
VERTEX
  8
LAYER1
 10
3.7083
 20
419.2142
 30
0
 70
     0
  0
VERTEX
  8
LAYER1
 10
3.7083
 20
419.2281
 30
0
 70
     0
  0
VERTEX
  8
LAYER1
 10
3.7222
 20
419.2559
 30
0
 70
     0
  0
VERTEX
  8
LAYER1
 10
3.7222
 20
419.2698
 30
0
 70
     0
  0
VERTEX
  8
LAYER1
 10
3.7222
 20
419.2698
 30
0
 70
     0
  0
SEQEND
  0
POLYLINE
  8
LAYER1
  6
CONTINUOUS
 62
     7
 66
     1
 70
     0
 40
0.0039
 41
0.0039
  0
VERTEX
  8
LAYER1
 10
3.7222
 20
419.1587
 30
0
 70
     0
  0
VERTEX
  8
LAYER1
 10
3.7951
 20
419.1721
 30
0
 70
     0
  0
VERTEX
  8
LAYER1
 10
3.8472
 20
419.2125
 30
0
 70
     0
  0
VERTEX
  8
LAYER1
 10
3.8785
 20
419.2798
 30
0
 70
     0
  0
VERTEX
  8
LAYER1
 10
3.8889
 20
419.3739
 30
0
 70
     0
  0
VERTEX
  8
LAYER1
 10
3.8889
 20
419.3739
 30
0
 70
     0
  0
VERTEX
  8
LAYER1
 10
3.8785
 20
419.4681
 30
0
 70
     0
  0
VERTEX
  8
LAYER1
 10
3.8472
 20
419.5354
 30
0
 70
     0
  0
VERTEX
  8
LAYER1
 10
3.7951
 20
419.5758
 30
0
 70
     0
  0
VERTEX
  8
LAYER1
 10
3.7222
 20
419.5892
 30
0
 70
     0
  0
SEQEND
  0
LINE
  8
LAYER1
  6
CONTINUOUS
 62
     7
 10
3.8889
 20
419.2698
 30
0
 11
3.7222
 21
419.2698
 31
0
  0
LINE
  8
LAYER1
  6
CONTINUOUS
 62
     7
 10
3.8889
 20
419.492
 30
0
 11
3.7222
 21
419.492
 31
0
  0
LINE
  8
LAYER1
  6
CONTINUOUS
 62
     7
 10
3.7083
 20
419.5475
 30
0
 11
3.7083
 21
419.2142
 31
0
  0
ENDBLK
  8
LAYER1
  0
BLOCK
  8
LAYER1
  2
Group49
 70
     0
 10
0
 20
0
 30
0
  0
LINE
  8
LAYER1
  6
CONTINUOUS
 62
     7
 10
5.4583
 20
419.4364
 30
0
 11
5.4861
 21
419.3253
 31
0
  0
POLYLINE
  8
LAYER1
  6
CONTINUOUS
 62
     0
 66
     1
 70
     0
 40
0.0039
 41
0.0039
  0
VERTEX
  8
LAYER1
 10
3.7083
 20
419.5475
 30
0
 70
     0
  0
VERTEX
  8
LAYER1
 10
3.9167
 20
419.5475
 30
0
 70
     0
  0
VERTEX
  8
LAYER1
 10
3.9167
 20
419.2003
 30
0
 70
     0
  0
VERTEX
  8
LAYER1
 10
3.7083
 20
419.2003
 30
0
 70
     0
  0
VERTEX
  8
LAYER1
 10
3.7083
 20
419.5475
 30
0
 70
     0
  0
SEQEND
  0
INSERT
  8
LAYER1
  2
Group48
 10
0
 20
0
 30
0
  0
ENDBLK
  8
LAYER1
  0
BLOCK
  8
LAYER1
  2
Group50
 70
     0
 10
0
 20
0
 30
0
  0
INSERT
  8
LAYER1
  2
Group47
 10
0
 20
0
 30
0
  0
INSERT
  8
LAYER1
  2
Group49
 10
0
 20
0
 30
0
  0
ENDBLK
  8
LAYER1
  0
BLOCK
  8
LAYER1
  2
Group51
 70
     0
 10
0
 20
0
 30
0
  0
POLYLINE
  8
LAYER1
  6
CONTINUOUS
 62
     7
 66
     1
 70
     0
 40
0.0039
 41
0.0039
  0
VERTEX
  8
LAYER1
 10
10.1389
 20
418.867
 30
0
 70
     0
  0
VERTEX
  8
LAYER1
 10
10.1389
 20
418.8809
 30
0
 70
     0
  0
VERTEX
  8
LAYER1
 10
10.1528
 20
418.8948
 30
0
 70
     0
  0
VERTEX
  8
LAYER1
 10
10.1667
 20
418.9087
 30
0
 70
     0
  0
VERTEX
  8
LAYER1
 10
10.1806
 20
418.9225
 30
0
 70
     0
  0
VERTEX
  8
LAYER1
 10
10.1944
 20
418.9364
 30
0
 70
     0
  0
VERTEX
  8
LAYER1
 10
10.2222
 20
418.9503
 30
0
 70
     0
  0
VERTEX
  8
LAYER1
 10
10.2361
 20
418.9503
 30
0
 70
     0
  0
VERTEX
  8
LAYER1
 10
10.25
 20
418.9503
 30
0
 70
     0
  0
SEQEND
  0
POLYLINE
  8
LAYER1
  6
CONTINUOUS
 62
     7
 66
     1
 70
     0
 40
0.0039
 41
0.0039
  0
VERTEX
  8
LAYER1
 10
9.9167
 20
418.992
 30
0
 70
     0
  0
VERTEX
  8
LAYER1
 10
9.9167
 20
419.0059
 30
0
 70
     0
  0
VERTEX
  8
LAYER1
 10
9.9306
 20
419.0475
 30
0
 70
     0
  0
VERTEX
  8
LAYER1
 10
9.9444
 20
419.0753
 30
0
 70
     0
  0
VERTEX
  8
LAYER1
 10
9.9583
 20
419.1031
 30
0
 70
     0
  0
VERTEX
  8
LAYER1
 10
9.9722
 20
419.117
 30
0
 70
     0
  0
VERTEX
  8
LAYER1
 10
9.9861
 20
419.1309
 30
0
 70
     0
  0
VERTEX
  8
LAYER1
 10
10.0417
 20
419.1725
 30
0
 70
     0
  0
VERTEX
  8
LAYER1
 10
10.0694
 20
419.1864
 30
0
 70
     0
  0
VERTEX
  8
LAYER1
 10
10.125
 20
419.2003
 30
0
 70
     0
  0
VERTEX
  8
LAYER1
 10
10.1528
 20
419.2003
 30
0
 70
     0
  0
SEQEND
  0
POLYLINE
  8
LAYER1
  6
CONTINUOUS
 62
     7
 66
     1
 70
     0
 40
0.0039
 41
0.0039
  0
VERTEX
  8
LAYER1
 10
9.9167
 20
418.992
 30
0
 70
     0
  0
VERTEX
  8
LAYER1
 10
9.9167
 20
418.9781
 30
0
 70
     0
  0
VERTEX
  8
LAYER1
 10
9.8889
 20
418.9225
 30
0
 70
     0
  0
VERTEX
  8
LAYER1
 10
9.8611
 20
418.8809
 30
0
 70
     0
  0
VERTEX
  8
LAYER1
 10
9.8333
 20
418.8392
 30
0
 70
     0
  0
VERTEX
  8
LAYER1
 10
9.8056
 20
418.8114
 30
0
 70
     0
  0
VERTEX
  8
LAYER1
 10
9.7778
 20
418.7837
 30
0
 70
     0
  0
VERTEX
  8
LAYER1
 10
9.7222
 20
418.742
 30
0
 70
     0
  0
VERTEX
  8
LAYER1
 10
9.6528
 20
418.7142
 30
0
 70
     0
  0
VERTEX
  8
LAYER1
 10
9.5833
 20
418.7003
 30
0
 70
     0
  0
VERTEX
  8
LAYER1
 10
9.5417
 20
418.7003
 30
0
 70
     0
  0
VERTEX
  8
LAYER1
 10
9.5
 20
418.7003
 30
0
 70
     0
  0
VERTEX
  8
LAYER1
 10
9.4306
 20
418.7142
 30
0
 70
     0
  0
VERTEX
  8
LAYER1
 10
9.3611
 20
418.742
 30
0
 70
     0
  0
VERTEX
  8
LAYER1
 10
9.3056
 20
418.7837
 30
0
 70
     0
  0
VERTEX
  8
LAYER1
 10
9.2778
 20
418.8114
 30
0
 70
     0
  0
VERTEX
  8
LAYER1
 10
9.25
 20
418.8392
 30
0
 70
     0
  0
VERTEX
  8
LAYER1
 10
9.2083
 20
418.8948
 30
0
 70
     0
  0
VERTEX
  8
LAYER1
 10
9.1806
 20
418.9642
 30
0
 70
     0
  0
VERTEX
  8
LAYER1
 10
9.1667
 20
419.0337
 30
0
 70
     0
  0
VERTEX
  8
LAYER1
 10
9.1667
 20
419.0753
 30
0
 70
     0
  0
VERTEX
  8
LAYER1
 10
9.1667
 20
419.117
 30
0
 70
     0
  0
VERTEX
  8
LAYER1
 10
9.1806
 20
419.1864
 30
0
 70
     0
  0
VERTEX
  8
LAYER1
 10
9.2083
 20
419.2559
 30
0
 70
     0
  0
VERTEX
  8
LAYER1
 10
9.25
 20
419.3114
 30
0
 70
     0
  0
VERTEX
  8
LAYER1
 10
9.2778
 20
419.3392
 30
0
 70
     0
  0
VERTEX
  8
LAYER1
 10
9.3056
 20
419.367
 30
0
 70
     0
  0
VERTEX
  8
LAYER1
 10
9.3611
 20
419.4087
 30
0
 70
     0
  0
VERTEX
  8
LAYER1
 10
9.4306
 20
419.4364
 30
0
 70
     0
  0
VERTEX
  8
LAYER1
 10
9.5
 20
419.4503
 30
0
 70
     0
  0
VERTEX
  8
LAYER1
 10
9.5417
 20
419.4503
 30
0
 70
     0
  0
VERTEX
  8
LAYER1
 10
9.5833
 20
419.4503
 30
0
 70
     0
  0
VERTEX
  8
LAYER1
 10
9.6528
 20
419.4364
 30
0
 70
     0
  0
VERTEX
  8
LAYER1
 10
9.7222
 20
419.4087
 30
0
 70
     0
  0
VERTEX
  8
LAYER1
 10
9.7778
 20
419.367
 30
0
 70
     0
  0
VERTEX
  8
LAYER1
 10
9.8056
 20
419.3392
 30
0
 70
     0
  0
VERTEX
  8
LAYER1
 10
9.8333
 20
419.3114
 30
0
 70
     0
  0
VERTEX
  8
LAYER1
 10
9.8611
 20
419.2698
 30
0
 70
     0
  0
VERTEX
  8
LAYER1
 10
9.8889
 20
419.2142
 30
0
 70
     0
  0
VERTEX
  8
LAYER1
 10
9.9028
 20
419.1725
 30
0
 70
     0
  0
VERTEX
  8
LAYER1
 10
9.9028
 20
419.1448
 30
0
 70
     0
  0
SEQEND
  0
LINE
  8
LAYER1
  6
CONTINUOUS
 62
     7
 10
9.9028
 20
419.1448
 30
0
 11
10.1528
 21
419.2142
 31
0
  0
POLYLINE
  8
LAYER1
  6
CONTINUOUS
 62
     7
 66
     1
 70
     0
 40
0.0039
 41
0.0039
  0
VERTEX
  8
LAYER1
 10
10.1389
 20
418.867
 30
0
 70
     0
  0
VERTEX
  8
LAYER1
 10
10.125
 20
418.8253
 30
0
 70
     0
  0
VERTEX
  8
LAYER1
 10
10.0972
 20
418.7698
 30
0
 70
     0
  0
VERTEX
  8
LAYER1
 10
10.0556
 20
418.7142
 30
0
 70
     0
  0
VERTEX
  8
LAYER1
 10
10.0139
 20
418.6587
 30
0
 70
     0
  0
VERTEX
  8
LAYER1
 10
9.9861
 20
418.6309
 30
0
 70
     0
  0
VERTEX
  8
LAYER1
 10
9.9583
 20
418.6031
 30
0
 70
     0
  0
VERTEX
  8
LAYER1
 10
9.9167
 20
418.5753
 30
0
 70
     0
  0
VERTEX
  8
LAYER1
 10
9.8611
 20
418.5337
 30
0
 70
     0
  0
VERTEX
  8
LAYER1
 10
9.8056
 20
418.5059
 30
0
 70
     0
  0
VERTEX
  8
LAYER1
 10
9.75
 20
418.4781
 30
0
 70
     0
  0
VERTEX
  8
LAYER1
 10
9.6944
 20
418.4642
 30
0
 70
     0
  0
VERTEX
  8
LAYER1
 10
9.625
 20
418.4503
 30
0
 70
     0
  0
VERTEX
  8
LAYER1
 10
9.5694
 20
418.4503
 30
0
 70
     0
  0
VERTEX
  8
LAYER1
 10
9.5417
 20
418.4503
 30
0
 70
     0
  0
VERTEX
  8
LAYER1
 10
9.5139
 20
418.4503
 30
0
 70
     0
  0
VERTEX
  8
LAYER1
 10
9.4583
 20
418.4503
 30
0
 70
     0
  0
VERTEX
  8
LAYER1
 10
9.3889
 20
418.4642
 30
0
 70
     0
  0
VERTEX
  8
LAYER1
 10
9.3333
 20
418.4781
 30
0
 70
     0
  0
VERTEX
  8
LAYER1
 10
9.2778
 20
418.5059
 30
0
 70
     0
  0
VERTEX
  8
LAYER1
 10
9.2222
 20
418.5337
 30
0
 70
     0
  0
VERTEX
  8
LAYER1
 10
9.1667
 20
418.5753
 30
0
 70
     0
  0
VERTEX
  8
LAYER1
 10
9.125
 20
418.6031
 30
0
 70
     0
  0
VERTEX
  8
LAYER1
 10
9.0972
 20
418.6309
 30
0
 70
     0
  0
VERTEX
  8
LAYER1
 10
9.0694
 20
418.6587
 30
0
 70
     0
  0
VERTEX
  8
LAYER1
 10
9.0417
 20
418.7003
 30
0
 70
     0
  0
VERTEX
  8
LAYER1
 10
9
 20
418.7559
 30
0
 70
     0
  0
VERTEX
  8
LAYER1
 10
8.9722
 20
418.8114
 30
0
 70
     0
  0
VERTEX
  8
LAYER1
 10
8.9444
 20
418.867
 30
0
 70
     0
  0
VERTEX
  8
LAYER1
 10
8.9306
 20
418.9225
 30
0
 70
     0
  0
VERTEX
  8
LAYER1
 10
8.9167
 20
418.992
 30
0
 70
     0
  0
VERTEX
  8
LAYER1
 10
8.9167
 20
419.0475
 30
0
 70
     0
  0
VERTEX
  8
LAYER1
 10
8.9167
 20
419.0753
 30
0
 70
     0
  0
VERTEX
  8
LAYER1
 10
8.9167
 20
419.1031
 30
0
 70
     0
  0
VERTEX
  8
LAYER1
 10
8.9167
 20
419.1587
 30
0
 70
     0
  0
VERTEX
  8
LAYER1
 10
8.9306
 20
419.2142
 30
0
 70
     0
  0
VERTEX
  8
LAYER1
 10
8.9444
 20
419.2837
 30
0
 70
     0
  0
VERTEX
  8
LAYER1
 10
8.9722
 20
419.3392
 30
0
 70
     0
  0
VERTEX
  8
LAYER1
 10
9
 20
419.3809
 30
0
 70
     0
  0
VERTEX
  8
LAYER1
 10
9.0417
 20
419.4503
 30
0
 70
     0
  0
VERTEX
  8
LAYER1
 10
9.0694
 20
419.492
 30
0
 70
     0
  0
VERTEX
  8
LAYER1
 10
9.0972
 20
419.5198
 30
0
 70
     0
  0
VERTEX
  8
LAYER1
 10
9.125
 20
419.5475
 30
0
 70
     0
  0
VERTEX
  8
LAYER1
 10
9.1667
 20
419.5753
 30
0
 70
     0
  0
VERTEX
  8
LAYER1
 10
9.2222
 20
419.617
 30
0
 70
     0
  0
VERTEX
  8
LAYER1
 10
9.2778
 20
419.6448
 30
0
 70
     0
  0
VERTEX
  8
LAYER1
 10
9.3333
 20
419.6725
 30
0
 70
     0
  0
VERTEX
  8
LAYER1
 10
9.3889
 20
419.6864
 30
0
 70
     0
  0
VERTEX
  8
LAYER1
 10
9.4583
 20
419.7003
 30
0
 70
     0
  0
VERTEX
  8
LAYER1
 10
9.5139
 20
419.7003
 30
0
 70
     0
  0
VERTEX
  8
LAYER1
 10
9.5417
 20
419.7003
 30
0
 70
     0
  0
VERTEX
  8
LAYER1
 10
9.5694
 20
419.7003
 30
0
 70
     0
  0
VERTEX
  8
LAYER1
 10
9.625
 20
419.7003
 30
0
 70
     0
  0
VERTEX
  8
LAYER1
 10
9.6944
 20
419.6864
 30
0
 70
     0
  0
VERTEX
  8
LAYER1
 10
9.75
 20
419.6725
 30
0
 70
     0
  0
VERTEX
  8
LAYER1
 10
9.8056
 20
419.6448
 30
0
 70
     0
  0
VERTEX
  8
LAYER1
 10
9.8611
 20
419.617
 30
0
 70
     0
  0
VERTEX
  8
LAYER1
 10
9.9167
 20
419.5753
 30
0
 70
     0
  0
VERTEX
  8
LAYER1
 10
9.9583
 20
419.5475
 30
0
 70
     0
  0
VERTEX
  8
LAYER1
 10
9.9861
 20
419.5198
 30
0
 70
     0
  0
VERTEX
  8
LAYER1
 10
10.0139
 20
419.492
 30
0
 70
     0
  0
VERTEX
  8
LAYER1
 10
10.0694
 20
419.4087
 30
0
 70
     0
  0
VERTEX
  8
LAYER1
 10
10.1111
 20
419.3392
 30
0
 70
     0
  0
VERTEX
  8
LAYER1
 10
10.1389
 20
419.2559
 30
0
 70
     0
  0
VERTEX
  8
LAYER1
 10
10.1528
 20
419.2142
 30
0
 70
     0
  0
SEQEND
  0
LINE
  8
LAYER1
  6
CONTINUOUS
 62
     7
 10
10.1528
 20
419.2003
 30
0
 11
11.7778
 21
419.2003
 31
0
  0
ENDBLK
  8
LAYER1
  0
BLOCK
  8
LAYER1
  2
Group52
 70
     0
 10
0
 20
0
 30
0
  0
LINE
  8
LAYER1
  6
CONTINUOUS
 62
     7
 10
10.25
 20
418.9503
 30
0
 11
11.7778
 21
418.9503
 31
0
  0
LINE
  8
LAYER1
  6
CONTINUOUS
 62
     7
 10
11.1806
 20
419.1725
 30
0
 11
11.1806
 21
418.9781
 31
0
  0
LINE
  8
LAYER1
  6
CONTINUOUS
 62
     7
 10
11.2361
 20
419.1725
 30
0
 11
11.2361
 21
418.9781
 31
0
  0
LINE
  8
LAYER1
  6
CONTINUOUS
 62
     7
 10
11.3056
 20
419.1725
 30
0
 11
11.3056
 21
418.9781
 31
0
  0
LINE
  8
LAYER1
  6
CONTINUOUS
 62
     7
 10
11.3611
 20
419.1725
 30
0
 11
11.3611
 21
418.9781
 31
0
  0
LINE
  8
LAYER1
  6
CONTINUOUS
 62
     7
 10
11.4306
 20
419.1725
 30
0
 11
11.4306
 21
418.9781
 31
0
  0
LINE
  8
LAYER1
  6
CONTINUOUS
 62
     7
 10
11.4861
 20
419.1725
 30
0
 11
11.4861
 21
418.9781
 31
0
  0
LINE
  8
LAYER1
  6
CONTINUOUS
 62
     7
 10
11.5556
 20
419.1725
 30
0
 11
11.5556
 21
418.9781
 31
0
  0
LINE
  8
LAYER1
  6
CONTINUOUS
 62
     7
 10
11.6111
 20
419.1725
 30
0
 11
11.6111
 21
418.9781
 31
0
  0
LINE
  8
LAYER1
  6
CONTINUOUS
 62
     7
 10
11.6806
 20
419.1725
 30
0
 11
11.6806
 21
418.9781
 31
0
  0
LINE
  8
LAYER1
  6
CONTINUOUS
 62
     7
 10
11.7361
 20
419.1725
 30
0
 11
11.7361
 21
418.9781
 31
0
  0
LINE
  8
LAYER1
  6
CONTINUOUS
 62
     7
 10
11.8056
 20
419.1725
 30
0
 11
11.8056
 21
418.9781
 31
0
  0
LINE
  8
LAYER1
  6
CONTINUOUS
 62
     7
 10
11.1528
 20
419.2003
 30
0
 11
11.1528
 21
418.9503
 31
0
  0
LINE
  8
LAYER1
  6
CONTINUOUS
 62
     7
 10
11.2083
 20
419.2003
 30
0
 11
11.2083
 21
418.9503
 31
0
  0
LINE
  8
LAYER1
  6
CONTINUOUS
 62
     7
 10
11.2778
 20
419.2003
 30
0
 11
11.2778
 21
418.9503
 31
0
  0
LINE
  8
LAYER1
  6
CONTINUOUS
 62
     7
 10
11.3333
 20
419.2003
 30
0
 11
11.3333
 21
418.9503
 31
0
  0
LINE
  8
LAYER1
  6
CONTINUOUS
 62
     7
 10
11.4028
 20
419.2003
 30
0
 11
11.4028
 21
418.9503
 31
0
  0
LINE
  8
LAYER1
  6
CONTINUOUS
 62
     7
 10
11.4583
 20
419.2003
 30
0
 11
11.4583
 21
418.9503
 31
0
  0
LINE
  8
LAYER1
  6
CONTINUOUS
 62
     7
 10
11.5278
 20
419.2003
 30
0
 11
11.5278
 21
418.9503
 31
0
  0
LINE
  8
LAYER1
  6
CONTINUOUS
 62
     7
 10
11.5833
 20
419.2003
 30
0
 11
11.5833
 21
418.9503
 31
0
  0
LINE
  8
LAYER1
  6
CONTINUOUS
 62
     7
 10
11.6528
 20
419.2003
 30
0
 11
11.6528
 21
418.9503
 31
0
  0
LINE
  8
LAYER1
  6
CONTINUOUS
 62
     7
 10
11.7083
 20
419.2003
 30
0
 11
11.7083
 21
418.9503
 31
0
  0
LINE
  8
LAYER1
  6
CONTINUOUS
 62
     7
 10
11.7778
 20
419.2003
 30
0
 11
11.7778
 21
418.9503
 31
0
  0
LINE
  8
LAYER1
  6
CONTINUOUS
 62
     7
 10
11.7778
 20
419.2003
 30
0
 11
11.8056
 21
419.1725
 31
0
  0
ENDBLK
  8
LAYER1
  0
BLOCK
  8
LAYER1
  2
Group53
 70
     0
 10
0
 20
0
 30
0
  0
INSERT
  8
LAYER1
  2
Group51
 10
0
 20
0
 30
0
  0
INSERT
  8
LAYER1
  2
Group52
 10
0
 20
0
 30
0
  0
ENDBLK
  8
LAYER1
  0
BLOCK
  8
LAYER1
  2
Group54
 70
     0
 10
0
 20
0
 30
0
  0
POLYLINE
  8
LAYER1
  6
CONTINUOUS
 62
     7
 66
     1
 70
     0
 40
0.0039
 41
0.0039
  0
VERTEX
  8
LAYER1
 10
11.625
 20
419.1864
 30
0
 70
     0
  0
VERTEX
  8
LAYER1
 10
11.6389
 20
419.1587
 30
0
 70
     0
  0
VERTEX
  8
LAYER1
 10
11.6528
 20
419.1031
 30
0
 70
     0
  0
VERTEX
  8
LAYER1
 10
11.6528
 20
419.0753
 30
0
 70
     0
  0
VERTEX
  8
LAYER1
 10
11.6528
 20
419.0337
 30
0
 70
     0
  0
VERTEX
  8
LAYER1
 10
11.6389
 20
418.9781
 30
0
 70
     0
  0
VERTEX
  8
LAYER1
 10
11.625
 20
418.9642
 30
0
 70
     0
  0
SEQEND
  0
POLYLINE
  8
LAYER1
  6
CONTINUOUS
 62
     7
 66
     1
 70
     0
 40
0.0039
 41
0.0039
  0
VERTEX
  8
LAYER1
 10
11.625
 20
419.2837
 30
0
 70
     0
  0
VERTEX
  8
LAYER1
 10
11.625
 20
419.2837
 30
0
 70
     0
  0
VERTEX
  8
LAYER1
 10
11.6389
 20
419.2698
 30
0
 70
     0
  0
VERTEX
  8
LAYER1
 10
11.6528
 20
419.242
 30
0
 70
     0
  0
VERTEX
  8
LAYER1
 10
11.6528
 20
419.2281
 30
0
 70
     0
  0
VERTEX
  8
LAYER1
 10
11.6528
 20
419.2142
 30
0
 70
     0
  0
VERTEX
  8
LAYER1
 10
11.6389
 20
419.1864
 30
0
 70
     0
  0
VERTEX
  8
LAYER1
 10
11.625
 20
419.1864
 30
0
 70
     0
  0
VERTEX
  8
LAYER1
 10
11.625
 20
419.1864
 30
0
 70
     0
  0
SEQEND
  0
POLYLINE
  8
LAYER1
  6
CONTINUOUS
 62
     7
 66
     1
 70
     0
 40
0.0039
 41
0.0039
  0
VERTEX
  8
LAYER1
 10
11.625
 20
418.9642
 30
0
 70
     0
  0
VERTEX
  8
LAYER1
 10
11.625
 20
418.9642
 30
0
 70
     0
  0
VERTEX
  8
LAYER1
 10
11.6389
 20
418.9503
 30
0
 70
     0
  0
VERTEX
  8
LAYER1
 10
11.6528
 20
418.9225
 30
0
 70
     0
  0
VERTEX
  8
LAYER1
 10
11.6528
 20
418.9087
 30
0
 70
     0
  0
VERTEX
  8
LAYER1
 10
11.6528
 20
418.8948
 30
0
 70
     0
  0
VERTEX
  8
LAYER1
 10
11.6389
 20
418.867
 30
0
 70
     0
  0
VERTEX
  8
LAYER1
 10
11.625
 20
418.8531
 30
0
 70
     0
  0
VERTEX
  8
LAYER1
 10
11.625
 20
418.8531
 30
0
 70
     0
  0
SEQEND
  0
POLYLINE
  8
LAYER1
  6
CONTINUOUS
 62
     7
 66
     1
 70
     0
 40
0.0039
 41
0.0039
  0
VERTEX
  8
LAYER1
 10
11.625
 20
418.8531
 30
0
 70
     0
  0
VERTEX
  8
LAYER1
 10
11.5521
 20
418.8666
 30
0
 70
     0
  0
VERTEX
  8
LAYER1
 10
11.5
 20
418.9069
 30
0
 70
     0
  0
VERTEX
  8
LAYER1
 10
11.4687
 20
418.9742
 30
0
 70
     0
  0
VERTEX
  8
LAYER1
 10
11.4583
 20
419.0684
 30
0
 70
     0
  0
VERTEX
  8
LAYER1
 10
11.4583
 20
419.0684
 30
0
 70
     0
  0
VERTEX
  8
LAYER1
 10
11.4687
 20
419.1626
 30
0
 70
     0
  0
VERTEX
  8
LAYER1
 10
11.5
 20
419.2298
 30
0
 70
     0
  0
VERTEX
  8
LAYER1
 10
11.5521
 20
419.2702
 30
0
 70
     0
  0
VERTEX
  8
LAYER1
 10
11.625
 20
419.2837
 30
0
 70
     0
  0
SEQEND
  0
LINE
  8
LAYER1
  6
CONTINUOUS
 62
     7
 10
11.4583
 20
418.9642
 30
0
 11
11.625
 21
418.9642
 31
0
  0
LINE
  8
LAYER1
  6
CONTINUOUS
 62
     7
 10
11.4583
 20
419.1725
 30
0
 11
11.625
 21
419.1725
 31
0
  0
LINE
  8
LAYER1
  6
CONTINUOUS
 62
     7
 10
11.6528
 20
419.242
 30
0
 11
11.6528
 21
418.9087
 31
0
  0
ENDBLK
  8
LAYER1
  0
BLOCK
  8
LAYER1
  2
Group55
 70
     0
 10
0
 20
0
 30
0
  0
LINE
  8
LAYER1
  6
CONTINUOUS
 62
     7
 10
11.7778
 20
418.9503
 30
0
 11
11.8056
 21
418.9781
 31
0
  0
POLYLINE
  8
LAYER1
  6
CONTINUOUS
 62
     0
 66
     1
 70
     0
 40
0.0039
 41
0.0039
  0
VERTEX
  8
LAYER1
 10
11.4583
 20
419.242
 30
0
 70
     0
  0
VERTEX
  8
LAYER1
 10
11.6667
 20
419.242
 30
0
 70
     0
  0
VERTEX
  8
LAYER1
 10
11.6667
 20
418.8948
 30
0
 70
     0
  0
VERTEX
  8
LAYER1
 10
11.4583
 20
418.8948
 30
0
 70
     0
  0
VERTEX
  8
LAYER1
 10
11.4583
 20
419.242
 30
0
 70
     0
  0
SEQEND
  0
INSERT
  8
LAYER1
  2
Group54
 10
0
 20
0
 30
0
  0
ENDBLK
  8
LAYER1
  0
BLOCK
  8
LAYER1
  2
Group56
 70
     0
 10
0
 20
0
 30
0
  0
INSERT
  8
LAYER1
  2
Group53
 10
0
 20
0
 30
0
  0
INSERT
  8
LAYER1
  2
Group55
 10
0
 20
0
 30
0
  0
ENDBLK
  8
LAYER1
  0
BLOCK
  8
LAYER1
  2
Group57
 70
     0
 10
0
 20
0
 30
0
  0
POLYLINE
  8
LAYER1
  6
CONTINUOUS
 62
     7
 66
     1
 70
     0
 40
0.0039
 41
0.0039
  0
VERTEX
  8
LAYER1
 10
13.4236
 20
422.0892
 30
0
 70
     0
  0
VERTEX
  8
LAYER1
 10
13.5005
 20
422.0853
 30
0
 70
     0
  0
VERTEX
  8
LAYER1
 10
13.5753
 20
422.0737
 30
0
 70
     0
  0
VERTEX
  8
LAYER1
 10
13.6476
 20
422.0549
 30
0
 70
     0
  0
VERTEX
  8
LAYER1
 10
13.7171
 20
422.0293
 30
0
 70
     0
  0
VERTEX
  8
LAYER1
 10
13.7832
 20
421.9973
 30
0
 70
     0
  0
VERTEX
  8
LAYER1
 10
13.8456
 20
421.9592
 30
0
 70
     0
  0
VERTEX
  8
LAYER1
 10
13.9039
 20
421.9154
 30
0
 70
     0
  0
VERTEX
  8
LAYER1
 10
13.9578
 20
421.8664
 30
0
 70
     0
  0
VERTEX
  8
LAYER1
 10
14.0068
 20
421.8126
 30
0
 70
     0
  0
VERTEX
  8
LAYER1
 10
14.0505
 20
421.7542
 30
0
 70
     0
  0
VERTEX
  8
LAYER1
 10
14.0886
 20
421.6918
 30
0
 70
     0
  0
VERTEX
  8
LAYER1
 10
14.1207
 20
421.6257
 30
0
 70
     0
  0
VERTEX
  8
LAYER1
 10
14.1463
 20
421.5563
 30
0
 70
     0
  0
VERTEX
  8
LAYER1
 10
14.1651
 20
421.484
 30
0
 70
     0
  0
VERTEX
  8
LAYER1
 10
14.1766
 20
421.4092
 30
0
 70
     0
  0
VERTEX
  8
LAYER1
 10
14.1806
 20
421.3323
 30
0
 70
     0
  0
VERTEX
  8
LAYER1
 10
14.1806
 20
421.3323
 30
0
 70
     0
  0
VERTEX
  8
LAYER1
 10
14.1766
 20
421.2553
 30
0
 70
     0
  0
VERTEX
  8
LAYER1
 10
14.1651
 20
421.1805
 30
0
 70
     0
  0
VERTEX
  8
LAYER1
 10
14.1463
 20
421.1082
 30
0
 70
     0
  0
VERTEX
  8
LAYER1
 10
14.1207
 20
421.0388
 30
0
 70
     0
  0
VERTEX
  8
LAYER1
 10
14.0886
 20
420.9727
 30
0
 70
     0
  0
VERTEX
  8
LAYER1
 10
14.0505
 20
420.9103
 30
0
 70
     0
  0
VERTEX
  8
LAYER1
 10
14.0068
 20
420.852
 30
0
 70
     0
  0
VERTEX
  8
LAYER1
 10
13.9578
 20
420.7981
 30
0
 70
     0
  0
VERTEX
  8
LAYER1
 10
13.9039
 20
420.7491
 30
0
 70
     0
  0
VERTEX
  8
LAYER1
 10
13.8456
 20
420.7053
 30
0
 70
     0
  0
VERTEX
  8
LAYER1
 10
13.7832
 20
420.6672
 30
0
 70
     0
  0
VERTEX
  8
LAYER1
 10
13.7171
 20
420.6352
 30
0
 70
     0
  0
VERTEX
  8
LAYER1
 10
13.6476
 20
420.6096
 30
0
 70
     0
  0
VERTEX
  8
LAYER1
 10
13.5753
 20
420.5908
 30
0
 70
     0
  0
VERTEX
  8
LAYER1
 10
13.5005
 20
420.5793
 30
0
 70
     0
  0
VERTEX
  8
LAYER1
 10
13.4236
 20
420.5753
 30
0
 70
     0
  0
SEQEND
  0
POLYLINE
  8
LAYER1
  6
CONTINUOUS
 62
     7
 66
     1
 70
     0
 40
0.0039
 41
0.0039
  0
VERTEX
  8
LAYER1
 10
13.4236
 20
421.8392
 30
0
 70
     0
  0
VERTEX
  8
LAYER1
 10
13.4751
 20
421.8366
 30
0
 70
     0
  0
VERTEX
  8
LAYER1
 10
13.5252
 20
421.8288
 30
0
 70
     0
  0
VERTEX
  8
LAYER1
 10
13.5736
 20
421.8162
 30
0
 70
     0
  0
VERTEX
  8
LAYER1
 10
13.6201
 20
421.7991
 30
0
 70
     0
  0
VERTEX
  8
LAYER1
 10
13.7062
 20
421.7521
 30
0
 70
     0
  0
VERTEX
  8
LAYER1
 10
13.7814
 20
421.69
 30
0
 70
     0
  0
VERTEX
  8
LAYER1
 10
13.8435
 20
421.6149
 30
0
 70
     0
  0
VERTEX
  8
LAYER1
 10
13.8905
 20
421.5288
 30
0
 70
     0
  0
VERTEX
  8
LAYER1
 10
13.9076
 20
421.4823
 30
0
 70
     0
  0
VERTEX
  8
LAYER1
 10
13.9202
 20
421.4339
 30
0
 70
     0
  0
VERTEX
  8
LAYER1
 10
13.9279
 20
421.3838
 30
0
 70
     0
  0
VERTEX
  8
LAYER1
 10
13.9306
 20
421.3323
 30
0
 70
     0
  0
VERTEX
  8
LAYER1
 10
13.9306
 20
421.3323
 30
0
 70
     0
  0
VERTEX
  8
LAYER1
 10
13.9279
 20
421.2807
 30
0
 70
     0
  0
VERTEX
  8
LAYER1
 10
13.9202
 20
421.2306
 30
0
 70
     0
  0
VERTEX
  8
LAYER1
 10
13.9076
 20
421.1822
 30
0
 70
     0
  0
VERTEX
  8
LAYER1
 10
13.8905
 20
421.1357
 30
0
 70
     0
  0
VERTEX
  8
LAYER1
 10
13.8435
 20
421.0497
 30
0
 70
     0
  0
VERTEX
  8
LAYER1
 10
13.7814
 20
420.9745
 30
0
 70
     0
  0
VERTEX
  8
LAYER1
 10
13.7062
 20
420.9124
 30
0
 70
     0
  0
VERTEX
  8
LAYER1
 10
13.6201
 20
420.8654
 30
0
 70
     0
  0
VERTEX
  8
LAYER1
 10
13.5736
 20
420.8483
 30
0
 70
     0
  0
VERTEX
  8
LAYER1
 10
13.5252
 20
420.8357
 30
0
 70
     0
  0
VERTEX
  8
LAYER1
 10
13.4751
 20
420.828
 30
0
 70
     0
  0
VERTEX
  8
LAYER1
 10
13.4236
 20
420.8253
 30
0
 70
     0
  0
SEQEND
  0
LINE
  8
LAYER1
  6
CONTINUOUS
 62
     7
 10
13.4167
 20
420.5892
 30
0
 11
11.7639
 21
420.5892
 31
0
  0
LINE
  8
LAYER1
  6
CONTINUOUS
 62
     7
 10
13.4167
 20
420.8392
 30
0
 11
11.7639
 21
420.8392
 31
0
  0
POLYLINE
  8
LAYER1
  6
CONTINUOUS
 62
     7
 66
     1
 70
     0
 40
0.0039
 41
0.0039
  0
VERTEX
  8
LAYER1
 10
13.4167
 20
421.8392
 30
0
 70
     0
  0
VERTEX
  8
LAYER1
 10
13.4028
 20
421.8392
 30
0
 70
     0
  0
VERTEX
  8
LAYER1
 10
13.3611
 20
421.867
 30
0
 70
     0
  0
VERTEX
  8
LAYER1
 10
13.3333
 20
421.8809
 30
0
 70
     0
  0
VERTEX
  8
LAYER1
 10
13.3194
 20
421.8948
 30
0
 70
     0
  0
VERTEX
  8
LAYER1
 10
13.3056
 20
421.9364
 30
0
 70
     0
  0
VERTEX
  8
LAYER1
 10
13.3056
 20
421.9642
 30
0
 70
     0
  0
VERTEX
  8
LAYER1
 10
13.3056
 20
421.992
 30
0
 70
     0
  0
VERTEX
  8
LAYER1
 10
13.3194
 20
422.0337
 30
0
 70
     0
  0
VERTEX
  8
LAYER1
 10
13.3333
 20
422.0614
 30
0
 70
     0
  0
VERTEX
  8
LAYER1
 10
13.3611
 20
422.0753
 30
0
 70
     0
  0
VERTEX
  8
LAYER1
 10
13.4028
 20
422.0892
 30
0
 70
     0
  0
VERTEX
  8
LAYER1
 10
13.4167
 20
422.0892
 30
0
 70
     0
  0
SEQEND
  0
ENDBLK
  8
LAYER1
  0
BLOCK
  8
LAYER1
  2
Group58
 70
     0
 10
0
 20
0
 30
0
  0
LINE
  8
LAYER1
  6
CONTINUOUS
 62
     7
 10
12.3611
 20
420.8114
 30
0
 11
12.3611
 21
420.6309
 31
0
  0
LINE
  8
LAYER1
  6
CONTINUOUS
 62
     7
 10
12.2917
 20
420.8114
 30
0
 11
12.2917
 21
420.6309
 31
0
  0
LINE
  8
LAYER1
  6
CONTINUOUS
 62
     7
 10
12.2361
 20
420.8114
 30
0
 11
12.2361
 21
420.6309
 31
0
  0
LINE
  8
LAYER1
  6
CONTINUOUS
 62
     7
 10
12.1667
 20
420.8114
 30
0
 11
12.1667
 21
420.6309
 31
0
  0
LINE
  8
LAYER1
  6
CONTINUOUS
 62
     7
 10
12.1111
 20
420.8114
 30
0
 11
12.1111
 21
420.6309
 31
0
  0
LINE
  8
LAYER1
  6
CONTINUOUS
 62
     7
 10
12.0417
 20
420.8114
 30
0
 11
12.0417
 21
420.6309
 31
0
  0
LINE
  8
LAYER1
  6
CONTINUOUS
 62
     7
 10
11.9861
 20
420.8114
 30
0
 11
11.9861
 21
420.6309
 31
0
  0
LINE
  8
LAYER1
  6
CONTINUOUS
 62
     7
 10
11.9167
 20
420.8114
 30
0
 11
11.9167
 21
420.6309
 31
0
  0
LINE
  8
LAYER1
  6
CONTINUOUS
 62
     7
 10
11.8611
 20
420.8114
 30
0
 11
11.8611
 21
420.6309
 31
0
  0
LINE
  8
LAYER1
  6
CONTINUOUS
 62
     7
 10
11.7917
 20
420.8114
 30
0
 11
11.7917
 21
420.6309
 31
0
  0
LINE
  8
LAYER1
  6
CONTINUOUS
 62
     7
 10
11.7361
 20
420.8114
 30
0
 11
11.7361
 21
420.6309
 31
0
  0
LINE
  8
LAYER1
  6
CONTINUOUS
 62
     7
 10
12.3889
 20
420.8392
 30
0
 11
12.3889
 21
420.5892
 31
0
  0
LINE
  8
LAYER1
  6
CONTINUOUS
 62
     7
 10
12.3333
 20
420.8392
 30
0
 11
12.3333
 21
420.5892
 31
0
  0
LINE
  8
LAYER1
  6
CONTINUOUS
 62
     7
 10
12.2639
 20
420.8392
 30
0
 11
12.2639
 21
420.5892
 31
0
  0
LINE
  8
LAYER1
  6
CONTINUOUS
 62
     7
 10
12.2083
 20
420.8392
 30
0
 11
12.2083
 21
420.5892
 31
0
  0
LINE
  8
LAYER1
  6
CONTINUOUS
 62
     7
 10
12.1389
 20
420.8392
 30
0
 11
12.1389
 21
420.5892
 31
0
  0
LINE
  8
LAYER1
  6
CONTINUOUS
 62
     7
 10
12.0833
 20
420.8392
 30
0
 11
12.0833
 21
420.5892
 31
0
  0
LINE
  8
LAYER1
  6
CONTINUOUS
 62
     7
 10
12.0139
 20
420.8392
 30
0
 11
12.0139
 21
420.5892
 31
0
  0
LINE
  8
LAYER1
  6
CONTINUOUS
 62
     7
 10
11.9583
 20
420.8392
 30
0
 11
11.9583
 21
420.5892
 31
0
  0
LINE
  8
LAYER1
  6
CONTINUOUS
 62
     7
 10
11.8889
 20
420.8392
 30
0
 11
11.8889
 21
420.5892
 31
0
  0
LINE
  8
LAYER1
  6
CONTINUOUS
 62
     7
 10
11.8333
 20
420.8392
 30
0
 11
11.8333
 21
420.5892
 31
0
  0
LINE
  8
LAYER1
  6
CONTINUOUS
 62
     7
 10
11.7639
 20
420.8392
 30
0
 11
11.7639
 21
420.5892
 31
0
  0
LINE
  8
LAYER1
  6
CONTINUOUS
 62
     7
 10
11.7361
 20
420.8114
 30
0
 11
11.7639
 21
420.8392
 31
0
  0
ENDBLK
  8
LAYER1
  0
BLOCK
  8
LAYER1
  2
Group59
 70
     0
 10
0
 20
0
 30
0
  0
POLYLINE
  8
LAYER1
  6
CONTINUOUS
 62
     7
 66
     1
 70
     0
 40
0.0039
 41
0.0039
  0
VERTEX
  8
LAYER1
 10
11.9722
 20
420.617
 30
0
 70
     0
  0
VERTEX
  8
LAYER1
 10
11.9722
 20
420.6309
 30
0
 70
     0
  0
VERTEX
  8
LAYER1
 10
11.9583
 20
420.6864
 30
0
 70
     0
  0
VERTEX
  8
LAYER1
 10
11.9583
 20
420.7142
 30
0
 70
     0
  0
VERTEX
  8
LAYER1
 10
11.9583
 20
420.742
 30
0
 70
     0
  0
VERTEX
  8
LAYER1
 10
11.9722
 20
420.7975
 30
0
 70
     0
  0
VERTEX
  8
LAYER1
 10
11.9722
 20
420.8253
 30
0
 70
     0
  0
SEQEND
  0
POLYLINE
  8
LAYER1
  6
CONTINUOUS
 62
     7
 66
     1
 70
     0
 40
0.0039
 41
0.0039
  0
VERTEX
  8
LAYER1
 10
11.9722
 20
420.8253
 30
0
 70
     0
  0
VERTEX
  8
LAYER1
 10
11.9722
 20
420.8253
 30
0
 70
     0
  0
VERTEX
  8
LAYER1
 10
11.9722
 20
420.8392
 30
0
 70
     0
  0
VERTEX
  8
LAYER1
 10
11.9583
 20
420.867
 30
0
 70
     0
  0
VERTEX
  8
LAYER1
 10
11.9583
 20
420.8809
 30
0
 70
     0
  0
VERTEX
  8
LAYER1
 10
11.9583
 20
420.8948
 30
0
 70
     0
  0
VERTEX
  8
LAYER1
 10
11.9722
 20
420.9225
 30
0
 70
     0
  0
VERTEX
  8
LAYER1
 10
11.9722
 20
420.9364
 30
0
 70
     0
  0
VERTEX
  8
LAYER1
 10
11.9722
 20
420.9364
 30
0
 70
     0
  0
SEQEND
  0
POLYLINE
  8
LAYER1
  6
CONTINUOUS
 62
     7
 66
     1
 70
     0
 40
0.0039
 41
0.0039
  0
VERTEX
  8
LAYER1
 10
11.9722
 20
420.5059
 30
0
 70
     0
  0
VERTEX
  8
LAYER1
 10
11.9722
 20
420.5059
 30
0
 70
     0
  0
VERTEX
  8
LAYER1
 10
11.9722
 20
420.5198
 30
0
 70
     0
  0
VERTEX
  8
LAYER1
 10
11.9583
 20
420.5475
 30
0
 70
     0
  0
VERTEX
  8
LAYER1
 10
11.9583
 20
420.5614
 30
0
 70
     0
  0
VERTEX
  8
LAYER1
 10
11.9583
 20
420.5753
 30
0
 70
     0
  0
VERTEX
  8
LAYER1
 10
11.9722
 20
420.6031
 30
0
 70
     0
  0
VERTEX
  8
LAYER1
 10
11.9722
 20
420.6031
 30
0
 70
     0
  0
VERTEX
  8
LAYER1
 10
11.9722
 20
420.617
 30
0
 70
     0
  0
SEQEND
  0
POLYLINE
  8
LAYER1
  6
CONTINUOUS
 62
     7
 66
     1
 70
     0
 40
0.0039
 41
0.0039
  0
VERTEX
  8
LAYER1
 10
11.9722
 20
420.5059
 30
0
 70
     0
  0
VERTEX
  8
LAYER1
 10
12.0451
 20
420.5193
 30
0
 70
     0
  0
VERTEX
  8
LAYER1
 10
12.0972
 20
420.5597
 30
0
 70
     0
  0
VERTEX
  8
LAYER1
 10
12.1285
 20
420.627
 30
0
 70
     0
  0
VERTEX
  8
LAYER1
 10
12.1389
 20
420.7212
 30
0
 70
     0
  0
VERTEX
  8
LAYER1
 10
12.1389
 20
420.7212
 30
0
 70
     0
  0
VERTEX
  8
LAYER1
 10
12.1285
 20
420.8153
 30
0
 70
     0
  0
VERTEX
  8
LAYER1
 10
12.0972
 20
420.8826
 30
0
 70
     0
  0
VERTEX
  8
LAYER1
 10
12.0451
 20
420.923
 30
0
 70
     0
  0
VERTEX
  8
LAYER1
 10
11.9722
 20
420.9364
 30
0
 70
     0
  0
SEQEND
  0
LINE
  8
LAYER1
  6
CONTINUOUS
 62
     7
 10
12.1389
 20
420.617
 30
0
 11
11.9722
 21
420.617
 31
0
  0
LINE
  8
LAYER1
  6
CONTINUOUS
 62
     7
 10
12.1389
 20
420.8253
 30
0
 11
11.9722
 21
420.8253
 31
0
  0
LINE
  8
LAYER1
  6
CONTINUOUS
 62
     7
 10
11.9583
 20
420.8948
 30
0
 11
11.9583
 21
420.5614
 31
0
  0
ENDBLK
  8
LAYER1
  0
BLOCK
  8
LAYER1
  2
Group60
 70
     0
 10
0
 20
0
 30
0
  0
LINE
  8
LAYER1
  6
CONTINUOUS
 62
     7
 10
11.7361
 20
420.6309
 30
0
 11
11.7639
 21
420.5892
 31
0
  0
POLYLINE
  8
LAYER1
  6
CONTINUOUS
 62
     0
 66
     1
 70
     0
 40
0.0039
 41
0.0039
  0
VERTEX
  8
LAYER1
 10
11.9583
 20
420.8809
 30
0
 70
     0
  0
VERTEX
  8
LAYER1
 10
12.1667
 20
420.8809
 30
0
 70
     0
  0
VERTEX
  8
LAYER1
 10
12.1667
 20
420.5337
 30
0
 70
     0
  0
VERTEX
  8
LAYER1
 10
11.9583
 20
420.5337
 30
0
 70
     0
  0
VERTEX
  8
LAYER1
 10
11.9583
 20
420.8809
 30
0
 70
     0
  0
SEQEND
  0
INSERT
  8
LAYER1
  2
Group59
 10
0
 20
0
 30
0
  0
ENDBLK
  8
LAYER1
  0
BLOCK
  8
LAYER1
  2
Group61
 70
     0
 10
0
 20
0
 30
0
  0
INSERT
  8
LAYER1
  2
Group57
 10
0
 20
0
 30
0
  0
INSERT
  8
LAYER1
  2
Group58
 10
0
 20
0
 30
0
  0
INSERT
  8
LAYER1
  2
Group60
 10
0
 20
0
 30
0
  0
ENDBLK
  8
LAYER1
  0
BLOCK
  8
LAYER1
  2
Group62
 70
     0
 10
0
 20
0
 30
0
  0
POLYLINE
  8
LAYER1
  6
CONTINUOUS
 62
     7
 66
     1
 70
     0
 40
0.0039
 41
0.0039
  0
VERTEX
  8
LAYER1
 10
13.4653
 20
419.8392
 30
0
 70
     0
  0
VERTEX
  8
LAYER1
 10
13.5422
 20
419.8353
 30
0
 70
     0
  0
VERTEX
  8
LAYER1
 10
13.617
 20
419.8237
 30
0
 70
     0
  0
VERTEX
  8
LAYER1
 10
13.6893
 20
419.8049
 30
0
 70
     0
  0
VERTEX
  8
LAYER1
 10
13.7587
 20
419.7793
 30
0
 70
     0
  0
VERTEX
  8
LAYER1
 10
13.8248
 20
419.7473
 30
0
 70
     0
  0
VERTEX
  8
LAYER1
 10
13.8872
 20
419.7092
 30
0
 70
     0
  0
VERTEX
  8
LAYER1
 10
13.9456
 20
419.6654
 30
0
 70
     0
  0
VERTEX
  8
LAYER1
 10
13.9994
 20
419.6164
 30
0
 70
     0
  0
VERTEX
  8
LAYER1
 10
14.0485
 20
419.5626
 30
0
 70
     0
  0
VERTEX
  8
LAYER1
 10
14.0922
 20
419.5042
 30
0
 70
     0
  0
VERTEX
  8
LAYER1
 10
14.1303
 20
419.4418
 30
0
 70
     0
  0
VERTEX
  8
LAYER1
 10
14.1623
 20
419.3757
 30
0
 70
     0
  0
VERTEX
  8
LAYER1
 10
14.1879
 20
419.3063
 30
0
 70
     0
  0
VERTEX
  8
LAYER1
 10
14.2067
 20
419.234
 30
0
 70
     0
  0
VERTEX
  8
LAYER1
 10
14.2183
 20
419.1592
 30
0
 70
     0
  0
VERTEX
  8
LAYER1
 10
14.2222
 20
419.0823
 30
0
 70
     0
  0
VERTEX
  8
LAYER1
 10
14.2222
 20
419.0823
 30
0
 70
     0
  0
VERTEX
  8
LAYER1
 10
14.2183
 20
419.0053
 30
0
 70
     0
  0
VERTEX
  8
LAYER1
 10
14.2067
 20
418.9305
 30
0
 70
     0
  0
VERTEX
  8
LAYER1
 10
14.1879
 20
418.8582
 30
0
 70
     0
  0
VERTEX
  8
LAYER1
 10
14.1623
 20
418.7888
 30
0
 70
     0
  0
VERTEX
  8
LAYER1
 10
14.1303
 20
418.7227
 30
0
 70
     0
  0
VERTEX
  8
LAYER1
 10
14.0922
 20
418.6603
 30
0
 70
     0
  0
VERTEX
  8
LAYER1
 10
14.0485
 20
418.602
 30
0
 70
     0
  0
VERTEX
  8
LAYER1
 10
13.9994
 20
418.5481
 30
0
 70
     0
  0
VERTEX
  8
LAYER1
 10
13.9456
 20
418.4991
 30
0
 70
     0
  0
VERTEX
  8
LAYER1
 10
13.8872
 20
418.4553
 30
0
 70
     0
  0
VERTEX
  8
LAYER1
 10
13.8248
 20
418.4172
 30
0
 70
     0
  0
VERTEX
  8
LAYER1
 10
13.7587
 20
418.3852
 30
0
 70
     0
  0
VERTEX
  8
LAYER1
 10
13.6893
 20
418.3596
 30
0
 70
     0
  0
VERTEX
  8
LAYER1
 10
13.617
 20
418.3408
 30
0
 70
     0
  0
VERTEX
  8
LAYER1
 10
13.5422
 20
418.3293
 30
0
 70
     0
  0
VERTEX
  8
LAYER1
 10
13.4653
 20
418.3253
 30
0
 70
     0
  0
SEQEND
  0
POLYLINE
  8
LAYER1
  6
CONTINUOUS
 62
     7
 66
     1
 70
     0
 40
0.0039
 41
0.0039
  0
VERTEX
  8
LAYER1
 10
13.4653
 20
419.5892
 30
0
 70
     0
  0
VERTEX
  8
LAYER1
 10
13.5168
 20
419.5866
 30
0
 70
     0
  0
VERTEX
  8
LAYER1
 10
13.5669
 20
419.5788
 30
0
 70
     0
  0
VERTEX
  8
LAYER1
 10
13.6153
 20
419.5662
 30
0
 70
     0
  0
VERTEX
  8
LAYER1
 10
13.6618
 20
419.5491
 30
0
 70
     0
  0
VERTEX
  8
LAYER1
 10
13.7479
 20
419.5021
 30
0
 70
     0
  0
VERTEX
  8
LAYER1
 10
13.823
 20
419.44
 30
0
 70
     0
  0
VERTEX
  8
LAYER1
 10
13.8851
 20
419.3649
 30
0
 70
     0
  0
VERTEX
  8
LAYER1
 10
13.9321
 20
419.2788
 30
0
 70
     0
  0
VERTEX
  8
LAYER1
 10
13.9493
 20
419.2323
 30
0
 70
     0
  0
VERTEX
  8
LAYER1
 10
13.9618
 20
419.1839
 30
0
 70
     0
  0
VERTEX
  8
LAYER1
 10
13.9696
 20
419.1338
 30
0
 70
     0
  0
VERTEX
  8
LAYER1
 10
13.9722
 20
419.0823
 30
0
 70
     0
  0
VERTEX
  8
LAYER1
 10
13.9722
 20
419.0823
 30
0
 70
     0
  0
VERTEX
  8
LAYER1
 10
13.9696
 20
419.0307
 30
0
 70
     0
  0
VERTEX
  8
LAYER1
 10
13.9618
 20
418.9806
 30
0
 70
     0
  0
VERTEX
  8
LAYER1
 10
13.9493
 20
418.9322
 30
0
 70
     0
  0
VERTEX
  8
LAYER1
 10
13.9321
 20
418.8857
 30
0
 70
     0
  0
VERTEX
  8
LAYER1
 10
13.8851
 20
418.7997
 30
0
 70
     0
  0
VERTEX
  8
LAYER1
 10
13.823
 20
418.7245
 30
0
 70
     0
  0
VERTEX
  8
LAYER1
 10
13.7479
 20
418.6624
 30
0
 70
     0
  0
VERTEX
  8
LAYER1
 10
13.6618
 20
418.6154
 30
0
 70
     0
  0
VERTEX
  8
LAYER1
 10
13.6153
 20
418.5983
 30
0
 70
     0
  0
VERTEX
  8
LAYER1
 10
13.5669
 20
418.5857
 30
0
 70
     0
  0
VERTEX
  8
LAYER1
 10
13.5168
 20
418.578
 30
0
 70
     0
  0
VERTEX
  8
LAYER1
 10
13.4653
 20
418.5753
 30
0
 70
     0
  0
SEQEND
  0
LINE
  8
LAYER1
  6
CONTINUOUS
 62
     7
 10
13.4583
 20
418.3392
 30
0
 11
11.8056
 21
418.3392
 31
0
  0
LINE
  8
LAYER1
  6
CONTINUOUS
 62
     7
 10
13.4583
 20
418.5892
 30
0
 11
11.8056
 21
418.5892
 31
0
  0
LINE
  8
LAYER1
  6
CONTINUOUS
 62
     7
 10
13.4583
 20
419.8392
 30
0
 11
11.8056
 21
419.8392
 31
0
  0
ENDBLK
  8
LAYER1
  0
BLOCK
  8
LAYER1
  2
Group63
 70
     0
 10
0
 20
0
 30
0
  0
LINE
  8
LAYER1
  6
CONTINUOUS
 62
     7
 10
13.4583
 20
419.5892
 30
0
 11
11.8194
 21
419.5892
 31
0
  0
LINE
  8
LAYER1
  6
CONTINUOUS
 62
     7
 10
12.4028
 20
419.8114
 30
0
 11
12.4028
 21
419.6309
 31
0
  0
LINE
  8
LAYER1
  6
CONTINUOUS
 62
     7
 10
12.3472
 20
419.8114
 30
0
 11
12.3472
 21
419.6309
 31
0
  0
LINE
  8
LAYER1
  6
CONTINUOUS
 62
     7
 10
12.2778
 20
419.8114
 30
0
 11
12.2778
 21
419.6309
 31
0
  0
LINE
  8
LAYER1
  6
CONTINUOUS
 62
     7
 10
12.2222
 20
419.8114
 30
0
 11
12.2222
 21
419.6309
 31
0
  0
LINE
  8
LAYER1
  6
CONTINUOUS
 62
     7
 10
12.1528
 20
419.8114
 30
0
 11
12.1528
 21
419.6309
 31
0
  0
LINE
  8
LAYER1
  6
CONTINUOUS
 62
     7
 10
12.0972
 20
419.8114
 30
0
 11
12.0972
 21
419.6309
 31
0
  0
LINE
  8
LAYER1
  6
CONTINUOUS
 62
     7
 10
12.0278
 20
419.8114
 30
0
 11
12.0278
 21
419.6309
 31
0
  0
LINE
  8
LAYER1
  6
CONTINUOUS
 62
     7
 10
11.9722
 20
419.8114
 30
0
 11
11.9722
 21
419.6309
 31
0
  0
LINE
  8
LAYER1
  6
CONTINUOUS
 62
     7
 10
11.9028
 20
419.8114
 30
0
 11
11.9028
 21
419.6309
 31
0
  0
LINE
  8
LAYER1
  6
CONTINUOUS
 62
     7
 10
11.8472
 20
419.8114
 30
0
 11
11.8472
 21
419.6309
 31
0
  0
LINE
  8
LAYER1
  6
CONTINUOUS
 62
     7
 10
11.7778
 20
419.8114
 30
0
 11
11.7778
 21
419.6309
 31
0
  0
LINE
  8
LAYER1
  6
CONTINUOUS
 62
     7
 10
12.4306
 20
419.8392
 30
0
 11
12.4306
 21
419.6031
 31
0
  0
LINE
  8
LAYER1
  6
CONTINUOUS
 62
     7
 10
12.375
 20
419.8392
 30
0
 11
12.375
 21
419.6031
 31
0
  0
LINE
  8
LAYER1
  6
CONTINUOUS
 62
     7
 10
12.3056
 20
419.8392
 30
0
 11
12.3056
 21
419.6031
 31
0
  0
LINE
  8
LAYER1
  6
CONTINUOUS
 62
     7
 10
12.25
 20
419.8392
 30
0
 11
12.25
 21
419.6031
 31
0
  0
LINE
  8
LAYER1
  6
CONTINUOUS
 62
     7
 10
12.1806
 20
419.8392
 30
0
 11
12.1806
 21
419.6031
 31
0
  0
LINE
  8
LAYER1
  6
CONTINUOUS
 62
     7
 10
12.125
 20
419.8392
 30
0
 11
12.125
 21
419.6031
 31
0
  0
LINE
  8
LAYER1
  6
CONTINUOUS
 62
     7
 10
12.0556
 20
419.8392
 30
0
 11
12.0556
 21
419.6031
 31
0
  0
LINE
  8
LAYER1
  6
CONTINUOUS
 62
     7
 10
12
 20
419.8392
 30
0
 11
12
 21
419.6031
 31
0
  0
LINE
  8
LAYER1
  6
CONTINUOUS
 62
     7
 10
11.9306
 20
419.8392
 30
0
 11
11.9306
 21
419.6031
 31
0
  0
LINE
  8
LAYER1
  6
CONTINUOUS
 62
     7
 10
11.875
 20
419.8392
 30
0
 11
11.875
 21
419.6031
 31
0
  0
LINE
  8
LAYER1
  6
CONTINUOUS
 62
     7
 10
11.8056
 20
419.8392
 30
0
 11
11.8056
 21
419.6031
 31
0
  0
LINE
  8
LAYER1
  6
CONTINUOUS
 62
     7
 10
11.7778
 20
419.8114
 30
0
 11
11.8056
 21
419.8392
 31
0
  0
ENDBLK
  8
LAYER1
  0
BLOCK
  8
LAYER1
  2
Group64
 70
     0
 10
0
 20
0
 30
0
  0
LINE
  8
LAYER1
  6
CONTINUOUS
 62
     7
 10
11.8056
 20
419.5892
 30
0
 11
11.7778
 21
419.6309
 31
0
  0
LINE
  8
LAYER1
  6
CONTINUOUS
 62
     7
 10
12.4028
 20
418.5614
 30
0
 11
12.4028
 21
418.3809
 31
0
  0
LINE
  8
LAYER1
  6
CONTINUOUS
 62
     7
 10
12.3472
 20
418.5614
 30
0
 11
12.3472
 21
418.3809
 31
0
  0
LINE
  8
LAYER1
  6
CONTINUOUS
 62
     7
 10
12.2778
 20
418.5614
 30
0
 11
12.2778
 21
418.3809
 31
0
  0
LINE
  8
LAYER1
  6
CONTINUOUS
 62
     7
 10
12.2222
 20
418.5614
 30
0
 11
12.2222
 21
418.3809
 31
0
  0
LINE
  8
LAYER1
  6
CONTINUOUS
 62
     7
 10
12.1528
 20
418.5614
 30
0
 11
12.1528
 21
418.3809
 31
0
  0
LINE
  8
LAYER1
  6
CONTINUOUS
 62
     7
 10
12.0972
 20
418.5614
 30
0
 11
12.0972
 21
418.3809
 31
0
  0
LINE
  8
LAYER1
  6
CONTINUOUS
 62
     7
 10
12.0278
 20
418.5614
 30
0
 11
12.0278
 21
418.3809
 31
0
  0
LINE
  8
LAYER1
  6
CONTINUOUS
 62
     7
 10
11.9722
 20
418.5614
 30
0
 11
11.9722
 21
418.3809
 31
0
  0
LINE
  8
LAYER1
  6
CONTINUOUS
 62
     7
 10
11.9028
 20
418.5614
 30
0
 11
11.9028
 21
418.3809
 31
0
  0
LINE
  8
LAYER1
  6
CONTINUOUS
 62
     7
 10
11.8472
 20
418.5614
 30
0
 11
11.8472
 21
418.3809
 31
0
  0
LINE
  8
LAYER1
  6
CONTINUOUS
 62
     7
 10
11.7778
 20
418.5614
 30
0
 11
11.7778
 21
418.3809
 31
0
  0
LINE
  8
LAYER1
  6
CONTINUOUS
 62
     7
 10
12.4306
 20
418.5892
 30
0
 11
12.4306
 21
418.3392
 31
0
  0
LINE
  8
LAYER1
  6
CONTINUOUS
 62
     7
 10
12.375
 20
418.5892
 30
0
 11
12.375
 21
418.3392
 31
0
  0
LINE
  8
LAYER1
  6
CONTINUOUS
 62
     7
 10
12.3056
 20
418.5892
 30
0
 11
12.3056
 21
418.3392
 31
0
  0
LINE
  8
LAYER1
  6
CONTINUOUS
 62
     7
 10
12.25
 20
418.5892
 30
0
 11
12.25
 21
418.3392
 31
0
  0
LINE
  8
LAYER1
  6
CONTINUOUS
 62
     7
 10
12.1806
 20
418.5892
 30
0
 11
12.1806
 21
418.3392
 31
0
  0
LINE
  8
LAYER1
  6
CONTINUOUS
 62
     7
 10
12.125
 20
418.5892
 30
0
 11
12.125
 21
418.3392
 31
0
  0
LINE
  8
LAYER1
  6
CONTINUOUS
 62
     7
 10
12.0556
 20
418.5892
 30
0
 11
12.0556
 21
418.3392
 31
0
  0
LINE
  8
LAYER1
  6
CONTINUOUS
 62
     7
 10
12
 20
418.5892
 30
0
 11
12
 21
418.3392
 31
0
  0
LINE
  8
LAYER1
  6
CONTINUOUS
 62
     7
 10
11.9306
 20
418.5892
 30
0
 11
11.9306
 21
418.3392
 31
0
  0
LINE
  8
LAYER1
  6
CONTINUOUS
 62
     7
 10
11.875
 20
418.5892
 30
0
 11
11.875
 21
418.3392
 31
0
  0
LINE
  8
LAYER1
  6
CONTINUOUS
 62
     7
 10
11.8056
 20
418.5892
 30
0
 11
11.8056
 21
418.3392
 31
0
  0
LINE
  8
LAYER1
  6
CONTINUOUS
 62
     7
 10
11.7778
 20
418.5614
 30
0
 11
11.8056
 21
418.5892
 31
0
  0
ENDBLK
  8
LAYER1
  0
BLOCK
  8
LAYER1
  2
Group65
 70
     0
 10
0
 20
0
 30
0
  0
POLYLINE
  8
LAYER1
  6
CONTINUOUS
 62
     7
 66
     1
 70
     0
 40
0.0039
 41
0.0039
  0
VERTEX
  8
LAYER1
 10
11.9722
 20
419.6031
 30
0
 70
     0
  0
VERTEX
  8
LAYER1
 10
11.9722
 20
419.6309
 30
0
 70
     0
  0
VERTEX
  8
LAYER1
 10
11.9583
 20
419.6864
 30
0
 70
     0
  0
VERTEX
  8
LAYER1
 10
11.9583
 20
419.7142
 30
0
 70
     0
  0
VERTEX
  8
LAYER1
 10
11.9583
 20
419.742
 30
0
 70
     0
  0
VERTEX
  8
LAYER1
 10
11.9722
 20
419.7975
 30
0
 70
     0
  0
VERTEX
  8
LAYER1
 10
11.9722
 20
419.8253
 30
0
 70
     0
  0
SEQEND
  0
POLYLINE
  8
LAYER1
  6
CONTINUOUS
 62
     7
 66
     1
 70
     0
 40
0.0039
 41
0.0039
  0
VERTEX
  8
LAYER1
 10
11.9722
 20
419.8253
 30
0
 70
     0
  0
VERTEX
  8
LAYER1
 10
11.9722
 20
419.8253
 30
0
 70
     0
  0
VERTEX
  8
LAYER1
 10
11.9722
 20
419.8392
 30
0
 70
     0
  0
VERTEX
  8
LAYER1
 10
11.9583
 20
419.867
 30
0
 70
     0
  0
VERTEX
  8
LAYER1
 10
11.9583
 20
419.8809
 30
0
 70
     0
  0
VERTEX
  8
LAYER1
 10
11.9583
 20
419.8948
 30
0
 70
     0
  0
VERTEX
  8
LAYER1
 10
11.9722
 20
419.9225
 30
0
 70
     0
  0
VERTEX
  8
LAYER1
 10
11.9722
 20
419.9364
 30
0
 70
     0
  0
VERTEX
  8
LAYER1
 10
11.9722
 20
419.9364
 30
0
 70
     0
  0
SEQEND
  0
POLYLINE
  8
LAYER1
  6
CONTINUOUS
 62
     7
 66
     1
 70
     0
 40
0.0039
 41
0.0039
  0
VERTEX
  8
LAYER1
 10
11.9722
 20
419.5059
 30
0
 70
     0
  0
VERTEX
  8
LAYER1
 10
11.9722
 20
419.5059
 30
0
 70
     0
  0
VERTEX
  8
LAYER1
 10
11.9722
 20
419.5059
 30
0
 70
     0
  0
VERTEX
  8
LAYER1
 10
11.9583
 20
419.5337
 30
0
 70
     0
  0
VERTEX
  8
LAYER1
 10
11.9583
 20
419.5614
 30
0
 70
     0
  0
VERTEX
  8
LAYER1
 10
11.9583
 20
419.5753
 30
0
 70
     0
  0
VERTEX
  8
LAYER1
 10
11.9722
 20
419.6031
 30
0
 70
     0
  0
VERTEX
  8
LAYER1
 10
11.9722
 20
419.6031
 30
0
 70
     0
  0
VERTEX
  8
LAYER1
 10
11.9722
 20
419.6031
 30
0
 70
     0
  0
SEQEND
  0
POLYLINE
  8
LAYER1
  6
CONTINUOUS
 62
     7
 66
     1
 70
     0
 40
0.0039
 41
0.0039
  0
VERTEX
  8
LAYER1
 10
11.9722
 20
419.5059
 30
0
 70
     0
  0
VERTEX
  8
LAYER1
 10
12.0451
 20
419.5193
 30
0
 70
     0
  0
VERTEX
  8
LAYER1
 10
12.0972
 20
419.5597
 30
0
 70
     0
  0
VERTEX
  8
LAYER1
 10
12.1285
 20
419.627
 30
0
 70
     0
  0
VERTEX
  8
LAYER1
 10
12.1389
 20
419.7212
 30
0
 70
     0
  0
VERTEX
  8
LAYER1
 10
12.1389
 20
419.7212
 30
0
 70
     0
  0
VERTEX
  8
LAYER1
 10
12.1285
 20
419.8153
 30
0
 70
     0
  0
VERTEX
  8
LAYER1
 10
12.0972
 20
419.8826
 30
0
 70
     0
  0
VERTEX
  8
LAYER1
 10
12.0451
 20
419.923
 30
0
 70
     0
  0
VERTEX
  8
LAYER1
 10
11.9722
 20
419.9364
 30
0
 70
     0
  0
SEQEND
  0
LINE
  8
LAYER1
  6
CONTINUOUS
 62
     7
 10
12.1389
 20
419.617
 30
0
 11
11.9722
 21
419.617
 31
0
  0
LINE
  8
LAYER1
  6
CONTINUOUS
 62
     7
 10
12.1389
 20
419.8253
 30
0
 11
11.9722
 21
419.8253
 31
0
  0
LINE
  8
LAYER1
  6
CONTINUOUS
 62
     7
 10
11.9583
 20
419.8809
 30
0
 11
11.9583
 21
419.5614
 31
0
  0
ENDBLK
  8
LAYER1
  0
BLOCK
  8
LAYER1
  2
Group66
 70
     0
 10
0
 20
0
 30
0
  0
LINE
  8
LAYER1
  6
CONTINUOUS
 62
     7
 10
11.7778
 20
418.3809
 30
0
 11
11.8056
 21
418.3392
 31
0
  0
POLYLINE
  8
LAYER1
  6
CONTINUOUS
 62
     0
 66
     1
 70
     0
 40
0.0039
 41
0.0039
  0
VERTEX
  8
LAYER1
 10
11.9583
 20
419.8809
 30
0
 70
     0
  0
VERTEX
  8
LAYER1
 10
12.1667
 20
419.8809
 30
0
 70
     0
  0
VERTEX
  8
LAYER1
 10
12.1667
 20
419.5337
 30
0
 70
     0
  0
VERTEX
  8
LAYER1
 10
11.9583
 20
419.5337
 30
0
 70
     0
  0
VERTEX
  8
LAYER1
 10
11.9583
 20
419.8809
 30
0
 70
     0
  0
SEQEND
  0
INSERT
  8
LAYER1
  2
Group65
 10
0
 20
0
 30
0
  0
ENDBLK
  8
LAYER1
  0
BLOCK
  8
LAYER1
  2
Group67
 70
     0
 10
0
 20
0
 30
0
  0
POLYLINE
  8
LAYER1
  6
CONTINUOUS
 62
     7
 66
     1
 70
     0
 40
0.0039
 41
0.0039
  0
VERTEX
  8
LAYER1
 10
11.9722
 20
418.367
 30
0
 70
     0
  0
VERTEX
  8
LAYER1
 10
11.9722
 20
418.3809
 30
0
 70
     0
  0
VERTEX
  8
LAYER1
 10
11.9583
 20
418.4364
 30
0
 70
     0
  0
VERTEX
  8
LAYER1
 10
11.9583
 20
418.4642
 30
0
 70
     0
  0
VERTEX
  8
LAYER1
 10
11.9583
 20
418.492
 30
0
 70
     0
  0
VERTEX
  8
LAYER1
 10
11.9722
 20
418.5475
 30
0
 70
     0
  0
VERTEX
  8
LAYER1
 10
11.9722
 20
418.5753
 30
0
 70
     0
  0
SEQEND
  0
POLYLINE
  8
LAYER1
  6
CONTINUOUS
 62
     7
 66
     1
 70
     0
 40
0.0039
 41
0.0039
  0
VERTEX
  8
LAYER1
 10
11.9722
 20
418.5753
 30
0
 70
     0
  0
VERTEX
  8
LAYER1
 10
11.9722
 20
418.5753
 30
0
 70
     0
  0
VERTEX
  8
LAYER1
 10
11.9722
 20
418.5892
 30
0
 70
     0
  0
VERTEX
  8
LAYER1
 10
11.9583
 20
418.617
 30
0
 70
     0
  0
VERTEX
  8
LAYER1
 10
11.9583
 20
418.6309
 30
0
 70
     0
  0
VERTEX
  8
LAYER1
 10
11.9583
 20
418.6448
 30
0
 70
     0
  0
VERTEX
  8
LAYER1
 10
11.9722
 20
418.6725
 30
0
 70
     0
  0
VERTEX
  8
LAYER1
 10
11.9722
 20
418.6864
 30
0
 70
     0
  0
VERTEX
  8
LAYER1
 10
11.9722
 20
418.6864
 30
0
 70
     0
  0
SEQEND
  0
POLYLINE
  8
LAYER1
  6
CONTINUOUS
 62
     7
 66
     1
 70
     0
 40
0.0039
 41
0.0039
  0
VERTEX
  8
LAYER1
 10
11.9722
 20
418.2559
 30
0
 70
     0
  0
VERTEX
  8
LAYER1
 10
11.9722
 20
418.2559
 30
0
 70
     0
  0
VERTEX
  8
LAYER1
 10
11.9722
 20
418.2698
 30
0
 70
     0
  0
VERTEX
  8
LAYER1
 10
11.9583
 20
418.2975
 30
0
 70
     0
  0
VERTEX
  8
LAYER1
 10
11.9583
 20
418.3114
 30
0
 70
     0
  0
VERTEX
  8
LAYER1
 10
11.9583
 20
418.3253
 30
0
 70
     0
  0
VERTEX
  8
LAYER1
 10
11.9722
 20
418.3531
 30
0
 70
     0
  0
VERTEX
  8
LAYER1
 10
11.9722
 20
418.3531
 30
0
 70
     0
  0
VERTEX
  8
LAYER1
 10
11.9722
 20
418.367
 30
0
 70
     0
  0
SEQEND
  0
POLYLINE
  8
LAYER1
  6
CONTINUOUS
 62
     7
 66
     1
 70
     0
 40
0.0039
 41
0.0039
  0
VERTEX
  8
LAYER1
 10
11.9722
 20
418.2559
 30
0
 70
     0
  0
VERTEX
  8
LAYER1
 10
12.0451
 20
418.2693
 30
0
 70
     0
  0
VERTEX
  8
LAYER1
 10
12.0972
 20
418.3097
 30
0
 70
     0
  0
VERTEX
  8
LAYER1
 10
12.1285
 20
418.377
 30
0
 70
     0
  0
VERTEX
  8
LAYER1
 10
12.1389
 20
418.4712
 30
0
 70
     0
  0
VERTEX
  8
LAYER1
 10
12.1389
 20
418.4712
 30
0
 70
     0
  0
VERTEX
  8
LAYER1
 10
12.1285
 20
418.5653
 30
0
 70
     0
  0
VERTEX
  8
LAYER1
 10
12.0972
 20
418.6326
 30
0
 70
     0
  0
VERTEX
  8
LAYER1
 10
12.0451
 20
418.673
 30
0
 70
     0
  0
VERTEX
  8
LAYER1
 10
11.9722
 20
418.6864
 30
0
 70
     0
  0
SEQEND
  0
LINE
  8
LAYER1
  6
CONTINUOUS
 62
     7
 10
12.1389
 20
418.367
 30
0
 11
11.9722
 21
418.367
 31
0
  0
LINE
  8
LAYER1
  6
CONTINUOUS
 62
     7
 10
12.1389
 20
418.5753
 30
0
 11
11.9722
 21
418.5753
 31
0
  0
LINE
  8
LAYER1
  6
CONTINUOUS
 62
     7
 10
11.9583
 20
418.6448
 30
0
 11
11.9583
 21
418.3114
 31
0
  0
ENDBLK
  8
LAYER1
  0
BLOCK
  8
LAYER1
  2
Group68
 70
     0
 10
0
 20
0
 30
0
  0
POLYLINE
  8
LAYER1
  6
CONTINUOUS
 62
     0
 66
     1
 70
     0
 40
0.0039
 41
0.0039
  0
VERTEX
  8
LAYER1
 10
11.9583
 20
418.6309
 30
0
 70
     0
  0
VERTEX
  8
LAYER1
 10
12.1667
 20
418.6309
 30
0
 70
     0
  0
VERTEX
  8
LAYER1
 10
12.1667
 20
418.2837
 30
0
 70
     0
  0
VERTEX
  8
LAYER1
 10
11.9583
 20
418.2837
 30
0
 70
     0
  0
VERTEX
  8
LAYER1
 10
11.9583
 20
418.6309
 30
0
 70
     0
  0
SEQEND
  0
INSERT
  8
LAYER1
  2
Group67
 10
0
 20
0
 30
0
  0
ENDBLK
  8
LAYER1
  0
BLOCK
  8
LAYER1
  2
Group69
 70
     0
 10
0
 20
0
 30
0
  0
INSERT
  8
LAYER1
  2
Group62
 10
0
 20
0
 30
0
  0
INSERT
  8
LAYER1
  2
Group63
 10
0
 20
0
 30
0
  0
INSERT
  8
LAYER1
  2
Group64
 10
0
 20
0
 30
0
  0
INSERT
  8
LAYER1
  2
Group66
 10
0
 20
0
 30
0
  0
INSERT
  8
LAYER1
  2
Group68
 10
0
 20
0
 30
0
  0
ENDBLK
  8
LAYER1
  0
BLOCK
  8
LAYER1
  2
Group70
 70
     0
 10
0
 20
0
 30
0
  0
TEXT
  8
LAYER1
 62
     7
 10
0.2222
 20
427.9503
 30
0
 40
0.125
  1
Miscellaneous Bolts and Screws
 50
0
999
Geneva
  0
LINE
  8
LAYER1
  6
CONTINUOUS
 62
     7
 10
0.1944
 20
428.2003
 30
0
 11
4.0833
 21
428.2003
 31
0
  0
ENDBLK
  8
LAYER1
  0
BLOCK
  8
LAYER1
  2
Group71
 70
     0
 10
0
 20
0
 30
0
  0
TEXT
  8
LAYER1
 62
     7
 10
8.6528
 20
427.9087
 30
0
 40
0.125
  1
Miscellaneous Bolts and Screws
 50
0
999
Geneva
  0
LINE
  8
LAYER1
  6
CONTINUOUS
 62
     7
 10
0.2361
 20
427.8948
 30
0
 11
4.125
 21
427.8948
 31
0
  0
LINE
  8
LAYER1
  6
CONTINUOUS
 62
     7
 10
8.6111
 20
428.1725
 30
0
 11
12.5139
 21
428.1725
 31
0
  0
ENDBLK
  8
LAYER1
  0
BLOCK
  8
LAYER1
  2
Group72
 70
     0
 10
0
 20
0
 30
0
  0
TEXT
  8
LAYER1
 62
     7
 10
0.2083
 20
417.4503
 30
0
 40
0.0833
  1
Scale 1:1  Printed at 70%
 50
0
999
Geneva
  0
TEXT
  8
LAYER1
 62
     7
 10
4.1806
 20
417.6031
 30
0
 40
0.0833
  1
©1989,1990,1991,1992
 50
0
999
Geneva
  0
TEXT
  8
LAYER1
 62
     7
 10
4.0556
 20
417.4364
 30
0
 40
0.0833
  1
Advanced System Design, Inc.
 50
0
999
Geneva
  0
ENDBLK
  8
LAYER1
  0
BLOCK
  8
LAYER1
  2
Group73
 70
     0
 10
0
 20
0
 30
0
  0
TEXT
  8
LAYER1
 62
     7
 10
8.6389
 20
417.4503
 30
0
 40
0.0833
  1
Scale 1:1  Printed at 70%
 50
0
999
Geneva
  0
TEXT
  8
LAYER1
 62
     7
 10
12.625
 20
417.6031
 30
0
 40
0.0833
  1
©1989,1990,1991,1992
 50
0
999
Geneva
  0
TEXT
  8
LAYER1
 62
     7
 10
12.5
 20
417.4364
 30
0
 40
0.0833
  1
Advanced System Design, Inc.
 50
0
999
Geneva
  0
ENDBLK
  8
LAYER1
  0
BLOCK
  8
LAYER1
  2
Group74
 70
     0
 10
0
 20
0
 30
0
  0
INSERT
  8
LAYER1
  2
Group3
 10
0
 20
0
 30
0
  0
TEXT
  8
LAYER1
 62
     7
 10
0.6806
 20
426.4503
 30
0
 40
0.0972
  1
StoveBolt Rnd
 50
0
999
Geneva
  0
TEXT
  8
LAYER1
 62
     7
 10
9.75
 20
420.6587
 30
0
 40
0.0972
  1
TurnBuckle
 50
0
999
Geneva
  0
TEXT
  8
LAYER1
 62
     7
 10
0.3333
 20
426.2281
 30
0
 40
0.0972
  1
Stove Bolt (Round Head)
 50
0
999
Geneva
  0
INSERT
  8
LAYER1
  2
Group6
 10
0
 20
0
 30
0
  0
TEXT
  8
LAYER1
 62
     7
 10
2.9167
 20
426.4503
 30
0
 40
0.0972
  1
StoveBolt Flat
 50
0
999
Geneva
  0
TEXT
  8
LAYER1
 62
     7
 10
2.6389
 20
426.2281
 30
0
 40
0.0972
  1
Stove Bolt (Flat Head)
 50
0
999
Geneva
  0
TEXT
  8
LAYER1
 62
     7
 10
4.9306
 20
426.4503
 30
0
 40
0.0972
  1
Screw Collar
 50
0
999
Geneva
  0
TEXT
  8
LAYER1
 62
     7
 10
4.9167
 20
426.242
 30
0
 40
0.0972
  1
Collar Screw
 50
0
999
Geneva
  0
TEXT
  8
LAYER1
 62
     7
 10
1.7361
 20
418.8253
 30
0
 40
0.0972
  1
Bolt Hanger
 50
0
999
Geneva
  0
TEXT
  8
LAYER1
 62
     7
 10
1.7222
 20
418.6031
 30
0
 40
0.0972
  1
Hanger Bolt
 50
0
999
Geneva
  0
TEXT
  8
LAYER1
 62
     7
 10
4.4028
 20
418.8392
 30
0
 40
0.0972
  1
Bolt Lag
 50
0
999
Geneva
  0
TEXT
  8
LAYER1
 62
     7
 10
4.4028
 20
418.617
 30
0
 40
0.0972
  1
Lag Bolt
 50
0
999
Geneva
  0
TEXT
  8
LAYER1
 62
     7
 10
0.8472
 20
420.5059
 30
0
 40
0.0972
  1
Bolt Step
 50
0
999
Geneva
  0
TEXT
  8
LAYER1
 62
     7
 10
0.8472
 20
420.2975
 30
0
 40
0.0972
  1
Step Bolt
 50
0
999
Geneva
  0
INSERT
  8
LAYER1
  2
Group7
 10
0
 20
0
 30
0
  0
INSERT
  8
LAYER1
  2
Group10
 10
0
 20
0
 30
0
  0
INSERT
  8
LAYER1
  2
Group11
 10
0
 20
0
 30
0
  0
INSERT
  8
LAYER1
  2
Group16
 10
0
 20
0
 30
0
  0
TEXT
  8
LAYER1
 62
     7
 10
9.7222
 20
420.4781
 30
0
 40
0.0972
  1
Turn Buckle
 50
0
999
Geneva
  0
TEXT
  8
LAYER1
 62
     7
 10
9.6944
 20
423.0614
 30
0
 40
0.0972
  1
Clevis
 50
0
999
Geneva
  0
TEXT
  8
LAYER1
 62
     7
 10
9.6944
 20
422.8253
 30
0
 40
0.0972
  1
Clevis
 50
0
999
Geneva
  0
TEXT
  8
LAYER1
 62
     7
 10
12.4028
 20
423.0337
 30
0
 40
0.0972
  1
ThumbScrew
 50
0
999
Geneva
  0
TEXT
  8
LAYER1
 62
     7
 10
12.3889
 20
422.8114
 30
0
 40
0.0972
  1
Thumb Screw
 50
0
999
Geneva
  0
TEXT
  8
LAYER1
 62
     7
 10
10.5278
 20
418.5753
 30
0
 40
0.0972
  1
Bolt Eye
 50
0
999
Geneva
  0
TEXT
  8
LAYER1
 62
     7
 10
10.5278
 20
418.3948
 30
0
 40
0.0972
  1
Eye Bolt
 50
0
999
Geneva
  0
TEXT
  8
LAYER1
 62
     7
 10
11.25
 20
426.117
 30
0
 40
0.0972
  1
Bolt Track
 50
0
999
Geneva
  0
TEXT
  8
LAYER1
 62
     7
 10
11.25
 20
425.8948
 30
0
 40
0.0972
  1
Track Bolt
 50
0
999
Geneva
  0
TEXT
  8
LAYER1
 62
     7
 10
0.625
 20
422.4642
 30
0
 40
0.0972
  1
CrgBoltSqrNck
 50
0
999
Geneva
  0
TEXT
  8
LAYER1
 62
     7
 10
0.2361
 20
422.242
 30
0
 40
0.0972
  1
Square Neck Carriage Bolt
 50
0
999
Geneva
  0
TEXT
  8
LAYER1
 62
     7
 10
2.4861
 20
422.4364
 30
0
 40
0.0972
  1
CrgBoltFinNeck
 50
0
999
Geneva
  0
TEXT
  8
LAYER1
 62
     7
 10
2.25
 20
422.2281
 30
0
 40
0.0972
  1
Fin Neck Carriage Bolt
 50
0
999
Geneva
  0
TEXT
  8
LAYER1
 62
     7
 10
4.3333
 20
422.4642
 30
0
 40
0.0972
  1
CrgBoltSqrNck2
 50
0
999
Geneva
  0
TEXT
  8
LAYER1
 62
     7
 10
4.0556
 20
422.242
 30
0
 40
0.0972
  1
Square Neck Carriage Bolt
 50
0
999
Geneva
  0
TEXT
  8
LAYER1
 62
     7
 10
2.625
 20
420.4781
 30
0
 40
0.0972
  1
CrgBoltRibNeck
 50
0
999
Geneva
  0
TEXT
  8
LAYER1
 62
     7
 10
2.2639
 20
420.2559
 30
0
 40
0.0972
  1
Ribbed Neck Carriage Bolt
 50
0
999
Geneva
  0
TEXT
  8
LAYER1
 62
     7
 10
0.8611
 20
424.7003
 30
0
 40
0.0972
  1
CntrSunkBolt
 50
0
999
Geneva
  0
TEXT
  8
LAYER1
 62
     7
 10
0.7222
 20
424.4781
 30
0
 40
0.0972
  1
Counter Sunk Bolt
 50
0
999
Geneva
  0
INSERT
  8
LAYER1
  2
Group19
 10
0
 20
0
 30
0
  0
INSERT
  8
LAYER1
  2
Group20
 10
0
 20
0
 30
0
  0
INSERT
  8
LAYER1
  2
Group21
 10
0
 20
0
 30
0
  0
TEXT
  8
LAYER1
 62
     7
 10
4.9722
 20
420.5198
 30
0
 40
0.0972
  1
BoltBttnHead
 50
0
999
Geneva
  0
TEXT
  8
LAYER1
 62
     7
 10
4.8472
 20
420.2698
 30
0
 40
0.0972
  1
Round Head Bolt
 50
0
999
Geneva
  0
TEXT
  8
LAYER1
 62
     7
 10
4.9028
 20
420.0892
 30
0
 40
0.0972
  1
(Button Head)
 50
0
999
Geneva
  0
INSERT
  8
LAYER1
  2
Group23
 10
0
 20
0
 30
0
  0
TEXT
  8
LAYER1
 62
     7
 10
4.7778
 20
424.6864
 30
0
 40
0.0972
  1
Bolt.T-Head
 50
0
999
Geneva
  0
TEXT
  8
LAYER1
 62
     7
 10
4.7778
 20
424.4642
 30
0
 40
0.0972
  1
T-Head Bolt
 50
0
999
Geneva
  0
INSERT
  8
LAYER1
  2
Group26
 10
0
 20
0
 30
0
  0
INSERT
  8
LAYER1
  2
Group27
 10
0
 20
0
 30
0
  0
INSERT
  8
LAYER1
  2
Group30
 10
0
 20
0
 30
0
  0
INSERT
  8
LAYER1
  2
Group31
 10
0
 20
0
 30
0
  0
INSERT
  8
LAYER1
  2
Group32
 10
0
 20
0
 30
0
  0
INSERT
  8
LAYER1
  2
Group34
 10
0
 20
0
 30
0
  0
INSERT
  8
LAYER1
  2
Group38
 10
0
 20
0
 30
0
  0
TEXT
  8
LAYER1
 62
     7
 10
2.7778
 20
424.6725
 30
0
 40
0.0972
  1
Bolt Plow
 50
0
999
Geneva
  0
TEXT
  8
LAYER1
 62
     7
 10
2.7639
 20
424.4503
 30
0
 40
0.0972
  1
Plow Bolt
 50
0
999
Geneva
  0
TEXT
  8
LAYER1
 62
     7
 10
12.5972
 20
419.1448
 30
0
 40
0.0972
  1
Bolt U
 50
0
999
Geneva
  0
TEXT
  8
LAYER1
 62
     7
 10
12.5972
 20
418.9642
 30
0
 40
0.0972
  1
U Bolt
 50
0
999
Geneva
  0
TEXT
  8
LAYER1
 62
     7
 10
12.6806
 20
421.3253
 30
0
 40
0.0972
  1
J Hook
 50
0
999
Geneva
  0
TEXT
  8
LAYER1
 62
     7
 10
12.6806
 20
421.1309
 30
0
 40
0.0972
  1
J Hook
 50
0
999
Geneva
  0
INSERT
  8
LAYER1
  2
Group42
 10
0
 20
0
 30
0
  0
INSERT
  8
LAYER1
  2
Group43
 10
0
 20
0
 30
0
  0
INSERT
  8
LAYER1
  2
Group44
 10
0
 20
0
 30
0
  0
INSERT
  8
LAYER1
  2
Group46
 10
0
 20
0
 30
0
  0
INSERT
  8
LAYER1
  2
Group50
 10
0
 20
0
 30
0
  0
INSERT
  8
LAYER1
  2
Group56
 10
0
 20
0
 30
0
  0
INSERT
  8
LAYER1
  2
Group61
 10
0
 20
0
 30
0
  0
INSERT
  8
LAYER1
  2
Group69
 10
0
 20
0
 30
0
  0
INSERT
  8
LAYER1
  2
Group70
 10
0
 20
0
 30
0
  0
INSERT
  8
LAYER1
  2
Group71
 10
0
 20
0
 30
0
  0
INSERT
  8
LAYER1
  2
Group72
 10
0
 20
0
 30
0
  0
INSERT
  8
LAYER1
  2
Group73
 10
0
 20
0
 30
0
  0
TEXT
  8
LAYER1
 62
     7
 10
0.9028
 20
426.0475
 30
0
 40
0.0833
  1
48700
 50
0
999
Geneva
  0
TEXT
  8
LAYER1
 62
     7
 10
3.1111
 20
426.0475
 30
0
 40
0.0833
  1
48701
 50
0
999
Geneva
  0
TEXT
  8
LAYER1
 62
     7
 10
5.1111
 20
426.0475
 30
0
 40
0.0833
  1
48702
 50
0
999
Geneva
  0
TEXT
  8
LAYER1
 62
     7
 10
1.1111
 20
424.3392
 30
0
 40
0.0833
  1
48703
 50
0
999
Geneva
  0
TEXT
  8
LAYER1
 62
     7
 10
2.9028
 20
424.242
 30
0
 40
0.0833
  1
48704
 50
0
999
Geneva
  0
TEXT
  8
LAYER1
 62
     7
 10
4.4028
 20
424.242
 30
0
 40
0.0833
  1
48705
 50
0
999
Geneva
  0
TEXT
  8
LAYER1
 62
     7
 10
5.7083
 20
424.242
 30
0
 40
0.0833
  1
48706
 50
0
999
Geneva
  0
TEXT
  8
LAYER1
 62
     7
 10
0.9028
 20
422.0475
 30
0
 40
0.0833
  1
48707
 50
0
999
Geneva
  0
TEXT
  8
LAYER1
 62
     7
 10
2.9028
 20
422.0475
 30
0
 40
0.0833
  1
48708
 50
0
999
Geneva
  0
TEXT
  8
LAYER1
 62
     7
 10
4.7083
 20
422.0475
 30
0
 40
0.0833
  1
48709
 50
0
999
Geneva
  0
TEXT
  8
LAYER1
 62
     7
 10
0.9028
 20
420.1448
 30
0
 40
0.0833
  1
48710
 50
0
999
Geneva
  0
TEXT
  8
LAYER1
 62
     7
 10
3
 20
420.1448
 30
0
 40
0.0833
  1
48711
 50
0
999
Geneva
  0
TEXT
  8
LAYER1
 62
     7
 10
5.2083
 20
419.9364
 30
0
 40
0.0833
  1
48712
 50
0
999
Geneva
  0
TEXT
  8
LAYER1
 62
     7
 10
1.9028
 20
418.4364
 30
0
 40
0.0833
  1
48713
 50
0
999
Geneva
  0
TEXT
  8
LAYER1
 62
     7
 10
4.5
 20
418.4364
 30
0
 40
0.0833
  1
48714
 50
0
999
Geneva
  0
TEXT
  8
LAYER1
 62
     7
 10
11.4028
 20
425.742
 30
0
 40
0.0833
  1
48715
 50
0
999
Geneva
  0
TEXT
  8
LAYER1
 62
     7
 10
9.6111
 20
424.4364
 30
0
 40
0.0833
  1
48716
 50
0
999
Geneva
  0
TEXT
  8
LAYER1
 62
     7
 10
9.6111
 20
423.5475
 30
0
 40
0.0833
  1
48717
 50
0
999
Geneva
  0
TEXT
  8
LAYER1
 62
     7
 10
13.2083
 20
424.5475
 30
0
 40
0.0833
  1
48718
 50
0
999
Geneva
  0
TEXT
  8
LAYER1
 62
     7
 10
13.2083
 20
423.6448
 30
0
 40
0.0833
  1
48719
 50
0
999
Geneva
  0
TEXT
  8
LAYER1
 62
     7
 10
9.9028
 20
421.6448
 30
0
 40
0.0833
  1
48720
 50
0
999
Geneva
  0
TEXT
  8
LAYER1
 62
     7
 10
9.9028
 20
420.9364
 30
0
 40
0.0833
  1
48721
 50
0
999
Geneva
  0
TEXT
  8
LAYER1
 62
     7
 10
12.7083
 20
420.9364
 30
0
 40
0.0833
  1
48722
 50
0
999
Geneva
  0
TEXT
  8
LAYER1
 62
     7
 10
10.6111
 20
418.242
 30
0
 40
0.0833
  1
48723
 50
0
999
Geneva
  0
TEXT
  8
LAYER1
 62
     7
 10
12.6111
 20
418.742
 30
0
 40
0.0833
  1
48724
 50
0
999
Geneva
  0
TEXT
  8
LAYER1
 62
     7
 10
2.5833
 20
417.4364
 30
0
 40
0.1389
  1
- 4-233 -
 50
0
999
Geneva
  0
TEXT
  8
LAYER1
 62
     7
 10
10.9583
 20
417.4364
 30
0
 40
0.1389
  1
- 4-234 -
 50
0
999
Geneva
  0
ENDBLK
  8
LAYER1
  0
ENDSEC
  0
SECTION
  2
ENTITIES
  0
INSERT
  8
LAYER1
  2
Group74
 10
0
 20
0
 30
0
  0
ENDSEC
  0
EOF
